Allman Brothers - Whipping Post tab

                Whipping Post (Solo) (Gregg Allman, Berry Oakley)
                          The Allman Brothers Band
                             Self-titled album

1st Guitar Solo (Duane Allman):|-5-------------------------------||-----8-5-------------------------||---------7-5-4-------------------||---------------5-7-4-5-----------||-----------------------7-7-7-7-7-||---------------------------------|
|-------------------------------------------||--------------------------------------5h8--||-------------5---5-7b9b7---5------5-5------||-----5-7-7-----7---------7---7-7-----------||-5-7---------------------------------------||-------------------------------------------|
|------------------------------------------------------------||-5---------------------------------5---5-5-5---5---5-5-5----||---7-5--7p5---7p5---5----------5-7--------------------------||------------7-----7---7-5--5-7---------------7-----------7--||------------------------------------------------------------||------------------------------------------------------------|
|---------------------------------8p5---5-5-||-5--8----------------------8p5-------8-----||---------7p5---7p5---7p5-------7-----------||-------------7-----7-----7-----------------||-------------------------------------------||-------------------------------------------|
|-8-12---10p8----8-------------------------------||-------------10----10--8------------------8--10-||--------------------------9--7-9--9-9-9-9-------||------------------------------------------------||------------------------------------------------||------------------------------------------------|
2nd Guitar Solo (Dickey Betts):|-------------------------------------------8-10------||-----------------------8---8---8-10---8-10-----------||--------------7----7h9---9---9------9----------------||-7--7-7--10-7---10-----------------------------------||-----------------------------------------------------||-----------------------------------------------------|
|-10b12-10b12-10b12-10b12-12p10p8-10----8-----------------||------------------------------------10---10-8------------||----------------------------------------------9-7-9------||----------------------------------------------------10-7-||---------------------------------------------------------||---------------------------------------------------------|
|-----------------------------------------------------||-------10---10---------------------------------------||-7--9-----9----9--7b9--9-9-9-9--55-4---55-4---55-4---||-------------------------------------7------7------7-||-----------------------------------------------------||-----------------------------------------------------|
|--------------------------------------------------------||-55-4---------------------------------------------------||--------55-4---4-5-4--4-5-4---4--------4-5-7-9-9-9-9-9--||------7------7--------------7---7--7-7------------------||--------------------------------------------------------||--------------------------------------------------------|
|----------------------------8-8-8-8-10-8-------------------------------||-----8h10-----8h10-----8h10--------------10-8--10-8--------------------||-7h9------7h9------7h9------------------------------9----7-7b9-9-9-9b7-||------------------------------------------------------10---------------||-----------------------------------------------------------------------||-----------------------------------------------------------------------|End Of Solo
|------------------------------------|------------------------------------||------------------------------------|------------------------------------||------------------------------------|------------------------------------||------------------------------------|-2-2-2-2--4-4-4-4--5-5-5-5--7-7-7-7-||-0-0-0-0--2-2-2-2--3-3-3-3--5-5-5-5-|------------------------------------||------------------------------------|------------------------------------|
|------------------------------------|------------------------------------||------------------------------------|-7-7-7-7--8-8-8-8--9-9-9-9--10------||-4-4-4-4--5-5-5-5--7-7-7-7--9-9-9-9-|------------------------------------||------------------------------------|------------------------------------||------------------------------------|------------------------------------||------------------------------------|------------------------------------|
|------15b17--------15b17--------15b17--------15b17-||---------------------------------------------------||---------------------------------------------------||---------------------------------------------------||-0-0---------2-2----------3-3----------2-2---------||---------------------------------------------------|
|------15b17--------15b17--------15b17--------15b17---||-----------------------------------------------------||-----------------------------------------------------||-----------------------------------------------------||-0-0---------2-2----------3-3----------2-2---------0-||-----------------------------------------------------|
Tap to rate this tab
 
# A B C D E F G H I J K L M N O P Q R S T U V W X Y Z