Amber Rubarth – You Will Love This Song tab

Her official site is http://www.amberrubarth.com/news.html

Her myspace is http://www.myspace.com/amberrubarth

Standard Tuning

Capo 3

This tab is done relative to the Capo.
Watch for the occasional x at the end of the bar noting to repeat it a certain number of 
(x2, x3, x4)

h= hammer on
p= pull off
s= slide

Intro

E|-------0------------------------------0---------------3----------|
B|-0h1------1p0---1-----1---------0h1-------1p0---1---------1p0----|
G|--0-------------0-0-------0------0--------------0-0--------------|
D|-----2--------------2-------2-------2---------------2------------|
A|--3------2-----------------------3-------2-----------------------|
E|----------------1-------1-----------------------1-------1--------|


E|-------0------------------------------0-----------|--------------|
B|-0h1------1p0---1-----1---------0h1-------1p0-----|--1-----------|
G|--0-------------0-0-------0------0----------------|--0-----------|
D|-----2--------------2-------2-------2-------------|--x-----------|
A|--3------2-----------------------3-------2--------|--x-----------|
E|----------------1-------1-------------------------|--1-----------|

Verse

ÒYou always loved the colors and the detail, so here is mineÉ
I snuck out down at dark Seventeenth Street late last nightÉÓ
E|-------0------------------------------0---------------3----------|
B|-0h1------1p0---1-----1---------0h1-------1p0---1---------1p0----|
G|--0-------------0-0-------0------0--------------0-0--------------| x2
D|-----2--------------2-------2-------2---------------2------------|
A|--3------2-----------------------3-------2-----------------------|
E|----------------1-------1-----------------------1-------1--------|

Pre Chorus

ÒI took my little orange book lamp and the notebook with the stars on the frontÉ
The sleeping bag that my ex gave to me to keep me warmÉ
And a black fountain pen to write the words that it wasÉÓ
E|--0----------3----------1----------3----------0----------3-------|
B|--1----------0----------1----------0----------1----------0-------|
G|--2----------0----------2----------0----------2----------0-------|
D|--2----------0----------3----------0----------2----------0-------|
A|--0----------2----------3----------2----------0----------2-------|
E|--0----------3----------1----------3----------0----------3-------|

ÒToo late to say out loudÉÓ
E|--1--------------------------------------------------------------|
B|--1--------------------------------------------------------------|
G|--2--------------------------------------------------------------|
D|--3--------------------------------------------------------------|
A|--3--------------------------------------------------------------|
E|--1--------------------------------------------------------------|


Chorus

ÒAnd my eyes turned green like they do when IÕm cryingÉ
And my heart, it went to blue cause you told me that I might not beÉ
What you need you want to try more outÉ
But you're the only thing I can't stop thinking aboutÉÓ
E|--0------------0--------------0------------------1---------------|
B|--1------------0--------------1------------------1---------------|
G|--0------------3--------------2------------------2---------------| x4
D|--2------------0--------------2------------------3---------------|
A|--3------------2--------------0------------------3---------------|
E|---------------0---------------------------------1---------------|

Bridge (strum)

ÒYeah IÉ   like youÉ a lotÉ    and I think it's worse than thatÉÓ
E|---------|---------|---------|----1------------------------------|
B|----1----|----0----|----1----|----1------------------------------|
G|----0----|----3----|----2----|----2------------------------------|
D|----2----|----0----|----2----|----3------------------------------|
A|----3----|----2----|----0----|----3------------------------------|
E|---------|---------|---------|----1------------------------------|

Intro

E|-------0------------------------------0---------------3----------|
B|-0h1------1p0---1-----1---------0h1-------1p0---1---------1p0----|
G|--0-------------0-0-------0------0--------------0-0--------------|
D|-----2--------------2-------2-------2---------------2------------|
A|--3------2-----------------------3-------2-----------------------|
E|----------------1-------1-----------------------1-------1--------|


E|-------0------------------------------0-----------|--------------|
B|-0h1------1p0---1-----1---------0h1-------1p0-----|--1-----------|
G|--0-------------0-0-------0------0----------------|--0-----------|
D|-----2--------------2-------2-------2-------------|--x-----------|
A|--3------2-----------------------3-------2--------|--x-----------|
E|----------------1-------1-------------------------|--1-----------|

Verse 2
Ã’You said you love it when all the words in a song move really fast and
your ears have to choose just one little phrase to hold ontoÉÓ
E|-------0------------------------------0---------------3----------|
B|-0h1------1p0---1-----1---------0h1-------1p0---1---------1p0----|
G|--0-------------0-0-------0---------------------0-0--------------|
D|-----2--------------2-------2-------2---------------2------------|
A|--3------2-----------------------3-------2-----------------------|
E|----------------1-------1-----------------------1-------1--------|


Ã’And you love it when all the chords are really simple so you can play
it on the guitar, and then when it goes to a funny one at the end you like that tooÉÓ
E|-------0------------------------------0-------------------8------|
B|-0h1------1p0---1-----1---------0h1-------1p0---6---------6------|
G|--0-------------0-0-------0---------------------5--5------5------|
D|-----2--------------2-------2-------2-----------6-----6---6------|
A|--3------2-----------------------3-------2-----------------------|
E|----------------1-------1----------------------------------------|

Pre Chorus

ÒAnd so I'll build you a song, and I know you're gonna love itÉ
ÔCause I'm putting in all the pieces that you said you wanted in itÉ
And I'm writing it here in my room in just my underwear and an orange t-shirtÉÓ
E|--0----------3----------1----------3----------0----------3-------|
B|--1----------0----------1----------0----------1----------0-------|
G|--2----------0----------2----------0----------2----------0-------|
D|--2----------0----------3----------0----------2----------0-------|
A|--0----------2----------3----------2----------0----------2-------|
E|--0----------3----------1----------3----------0----------3-------|

ÒÕCause I know that you'd think that was hotÉÓ
E|--1--------------------------------------------------------------|
B|--1--------------------------------------------------------------|
G|--2--------------------------------------------------------------|
D|--3--------------------------------------------------------------|
A|--3--------------------------------------------------------------|
E|--1--------------------------------------------------------------|

Chorus

ÒYeah hot, like that day that you called sick for workÉ
Because we'd stayed out too late at the cheesecake factory the night beforeÉ
And we held hands on the beach, and I found that crab in a funny shellÉ
And you took video of me holding it up by the newly-painted blue motelÉÓ
E|--0------------0--------------0------------------1---------------|
B|--1------------0--------------1------------------1---------------|
G|--0------------3--------------2------------------2---------------| x4
D|--2------------0--------------2------------------3---------------|
A|--3------------2--------------0------------------3---------------|
E|-------------------------------------------------1---------------|

Bridge (strum)

ÒAnd you said IÉ   like youÉ   a lotÉ and I thought well this couldnÕt get much better
E|-------------|---------|------|----1-----------------------------|
B|------1------|----0----|--1---|----1-----------------------------|
G|------0------|----3----|--2---|----2-----------------------------|
D|------2------|----0----|--2---|----3-----------------------------|
A|------3------|----2----|--0---|----3-----------------------------|
E|-------------|---------|------|----1-----------------------------|


Intro
                                                 End on
E|-------0------------------------------0--------|-----------------|
B|-0h1------1p0---1-----1---------0h1-------1p0--|--1--------------|
G|--0-------------0-0-------0------0-------------|--0--------------|
D|-----2--------------2-------2-------2----------|--x--------------|
A|--3------2-----------------------3-------2-----|--x--------------|
E|----------------1-------1----------------------|--1--------------|

Verse 3

ÒYou said you were so happy you met me when you did, because you were starting to think you didnÕt like peopleÉ
And you told me that when I moved out, I could still stay in your room for weeksÉÓ
E|-------0------------------------------0---------------3----------|
B|-0h1------1p0---1-----1---------0h1-------1p0---1---------1p0----|
G|--0-------------0-0-------0------0--------------0-0--------------| x2
D|-----2--------------2-------2-------2---------------2------------|
A|--3------2-----------------------3-------2-----------------------|
E|----------------1-------1-----------------------1-------1--------|

Pre Chorus

ÒBut now I'm wondering if I imagined it, or if it was ever really thereÉ
ÔCause they say, even in magic nothing truly disappearsÉ
It just gets stuffed up somebodyÕs sleeve or behind their hand, or on top of their headÉÓ
E|--0----------3----------1----------3----------0----------3-------|
B|--1----------0----------1----------1----------1----------1-------|
G|--2----------0----------2----------0----------2----------0-------|
D|--2----------0----------3----------0----------2----------0-------|
A|--0----------2----------3----------2----------0----------2-------|
E|--0----------3----------1----------3----------0----------3-------|

ÒYou forgot to keep your eye on it; you were looking down insteadÉÓ
E|--1--------------------------------------------------------------|
B|--1--------------------------------------------------------------|
G|--2--------------------------------------------------------------|
D|--3--------------------------------------------------------------|
A|--3--------------------------------------------------------------|
E|--1--------------------------------------------------------------|


Chorus

ÒSo now, I'm the fool up on stage at the magic showÉ
Searching the deck for my card, while everyone laughs because they knowÉ
That it's in plain sight to see, yeah it's stuck on your foreheadÉ
But I can't think youÕre mean, Ôcause I volunteered to be misledÉÓ
E|--0------------0--------------0------------------1---------------|
B|--1------------0--------------1------------------1---------------|
G|--0------------3--------------2------------------2---------------| x4
D|--2------------0--------------2------------------3---------------|
A|--3------------2--------------0------------------3---------------|
E|-------------------------------------------------1---------------|

Bridge (strum)

ÒYeah cause IÉ like youÉ a lotÉ  and I don't know what to do with it nowÉ
ÒAnd IÉ        like youÉ a lotÉ  but I didn't think itÕd hurt this badÉ
ÒAnd IÉ        like youÉ a lotÉ  and we both know that itÕs worse than thatÉ
E|-------------|---------|------|----1-----------------------------|
B|------1------|----0----|--1---|----1-----------------------------|
G|------0------|----3----|--2---|----2-----------------------------| x3
D|------2------|----0----|--2---|----3-----------------------------|
A|------3------|----2----|--0---|----3-----------------------------|
E|-------------|---------|------|----1-----------------------------|


E|--3--0--4--4s7--8--------8---------------------------------------|
B|--1-----3-------5--5-----6---------------------------------------|
G|--------4-------5-----5--5---------------------------------------| 
D|--2-----2-------7--------6---------------------------------------|
A|--3-----2-------0--------0---------------------------------------|
E|-----------------------------------------------------------------|

And back to the intro chords to end it. 

Song submitted by orangeeyes@gmail.com
Please rate this tab:
x1.0