Amebix – Monolith Nobodys Driving tab

Hey its Bren (writer of bunch of novembers doom tabs). monolith basicly is the intro to 
driving so u know. Also Consiter WARLORD UKs cover of nobodys driving as well as their 
cover of chain reaction.


Tuning-E-A-D-G-B-E

-----------------0-----------------------------|-----------------------------------------------|-------0-------0-------------------------------|-----9-------9---------------------------------|---7-------7-----------------------------------|-0-------0-------------------------------------|
-------------------0-----------------------------------|---0-----0-----0-----0---------------------------------|-----4-----4-----4-----4-------------------------------|-------------------------------------------------------|-2-----2-----2-----------------------------------------|-------------------------------------------------------|
--------------------0-----------------------|---0------0-----0-----0---------------------|-----6------6-----6-----6-------------------|--------------------------------------------|-4------4-----4-----------------------------|--------------------------------------------|
-------------------0----------------------------|---0-----0-----0-----0--------------------------|-----7-----7-----7-----7------------------------|------------------------------------------------|-5-----5-----5----------------------------------|------------------------------------------------|
------------0------------------------------------|-------0-----------------------------------------|-----9-------------------------------------------|---9---------------------------------------------|-7-----------------------------------------------|-------------------------------------------------|
-----------------------0-------------------------|----------0--------------------------------------|-------0-----------0-----------------------------|-----9-----------9-------------------------------|---7-----------7---------------------------------|-0-----------0-----------------------------------|
----------------------------------------------------| slide up an down here----------------------------------------------------| between each power----------------------------------------------------| chord like what stig-2-------2-------2------2-------2-------------------| does-2-------2-------2------2-------2-------------------|-0-------0-------0------0-------0-------------------|
----------------|----------------|-2--4-----------|-2--4-4-5-2-----|-0--2-4-5-2-----|------2-3-0-----|
------------------------------------|------------------------------------|------------------------------------|--------------------2-2-2-2---------|--------------------2-2-2-2---------|-0-0-0-0-0-0-0-0-0--0-0-0-0---------|
================END===============OF=================MONOLITH===============
riff 1|---------------------------------||---------------------------------||--9-----9-----9-9-9-----9-9-9-7--||--9-----9-----9-9-9-----9-9-9-7--||--7-----7-----7-7-7-----7-7-7-5--||----000---000-------000----------| ... ... ...
riff 2|----------------------------------------------------------------------||----------------------------------------------------------------------||----------------------------------------------------------------------||--5-----5-----5--5--5-----5---7--7---5-----5-----5--5--5-----5---4--4-||--5-----5-----5--5--5-----5---7--7---5-----5-----5--5--5-----5---4--4-||--3-333-3-333-3--3--3-333-3---5--5---3-333-3-333-3--3--3-333-3---2--2-| ... ... ... ... ... ...
riff 3|--------------------------------||--------------------------------||--------------------------------||--4--4--4--7--7--4--4--4--9--9--||--4--4--4--7--7--4--4--4--9--9--||--2--2--2--5--5--2--2--2--7--7--| . . . .
riff 4|------------------------------------------------------||------------------------------------------------------||-2--2--2--2-2-4-5--5-5-5--5-5-7-7-7-7-7-7-7-7-7-7-7-7-||-2--2--2--2-2-4-5--5-5-5--5-5-7-7-7-7-7-7-7-7-7-7-7-7-||-0--0--0--0-0-2-3--3-3-3--3-3-5-5-5-5-5-5-5-5-5-5-5-5-||------------------------------------------------------|
There are a few parts throughout the song were Stig just makes noise with his guitar for those parts muffle your strings and just slide across all of them with your pick or something..
Please rate this tab:
x1.0