Amen – Cracks Of Tomorrow tab

#----------------------------------PLEASE NOTE---------------------------------#
#This file is the author's own work and represents their interpretation of the-#
#song. You may only use this file for private study, scholarship, or research.-#
#------------------------------------------------------------------------------#

ARTIST: Amen
TRACK:  Cracks Of Tomorrow
ALBUM:  Join, Or Die

TABBED BY: Ben (Death_Concession_666@hotmail.com)

GUITARISTS: Paul Fig & Sonny Mayo / Rich Jones & Matt Montgomery
TUNING: Drop D ( D A D G B E )


INTRO & MAIN RIFF 0:00/0:17

|-----------------------------------|-----------------------------------|-----------------------------------|----------6-6---6---------9-9------|--4-4---4-4-4---4-7-7---7-7-7-9-9--|--4-4---4---------7-7---7-----9-9-- x6
VERSE 0:17/0:41
|-------------------------------------------------------------|-------------------------------------------------------------|-------------------------------------------------------------|----------------------------6-6-6----------------------------|--4---4-4-4-4-4-4-4-4-4-4-4-4-4-4-7---7-7-7-7-7-7-7-7-7-7-7--|--4---4-4-4-4-4-4-4-4-4-4-4-------7---7-7-7-7-7-7-7-7-7-7-7-- x4
CHORUS 0:41/0:59
|-----------------------------------------------------|-----------------------------------------------------|-----------------------------------------------------|--9-9-9-----------------6-6-7-7-7--------------------|--7-7-7-9-9-9-9-9-9-9-9-4-4-5-5-5-7-7-7-7-7-7-7-7-7--|--------9-9-9-9-9-9-9-9-----------7-7-7-7-7-7-7-7-7-- x4
BREAK DOWN 0:59/1:02
|-------------------------------|-------------------------------|-------------------------------|-------------------------------|--4---2-4---2-4-2-4-2-4---4-4--|--4---2-4---2-4-2-4-2-4---4-4--
MAIN RIFF 1:02/1:20
|-----------------------------------|-----------------------------------|-----------------------------------|----------6-6---6---------9-9------|--4-4---4-4-4---4-7-7---7-7-7-9-9--|--4-4---4---------7-7---7-----9-9-- x6
VERSE 1:20/1:44
|-------------------------------------------------------------|-------------------------------------------------------------|-------------------------------------------------------------|----------------------------6-6-6----------------------------|--4---4-4-4-4-4-4-4-4-4-4-4-4-4-4-7---7-7-7-7-7-7-7-7-7-7-7--|--4---4-4-4-4-4-4-4-4-4-4-4-------7---7-7-7-7-7-7-7-7-7-7-7-- x4
CHORUS 1:44/2:02
|-----------------------------------------------------|-----------------------------------------------------|-----------------------------------------------------|--9-9-9-----------------6-6-7-7-7--------------------|--7-7-7-9-9-9-9-9-9-9-9-4-4-5-5-5-7-7-7-7-7-7-7-7-7--|--------9-9-9-9-9-9-9-9-----------7-7-7-7-7-7-7-7-7-- x4
BREAK DOWN 2:02/2:14
|-------------------------------|-------------------------------|-------------------------------|-------------------------------|--4---2-4---2-4-2-4-2-4---4-4--|--4---2-4---2-4-2-4-2-4---4-4-- x4
VERSE 2:14/2:38
|-------------------------------------------------------------|-------------------------------------------------------------|-------------------------------------------------------------|----------------------------6-6-6----------------------------|--4---4-4-4-4-4-4-4-4-4-4-4-4-4-4-7---7-7-7-7-7-7-7-7-7-7-7--|--4---4-4-4-4-4-4-4-4-4-4-4-------7---7-7-7-7-7-7-7-7-7-7-7-- x4
CHORUS 2:38/2:56
|-----------------------------------------------------|-----------------------------------------------------|-----------------------------------------------------|--9-9-9-----------------6-6-7-7-7--------------------|--7-7-7-9-9-9-9-9-9-9-9-4-4-5-5-5-7-7-7-7-7-7-7-7-7--|--------9-9-9-9-9-9-9-9-----------7-7-7-7-7-7-7-7-7-- x4
OUTRO 2:56/2:58
|-----------|-----------|-----------|-----------|--9---/-1--|--9---/-1--
BEHIND THE CHORUS YOU CAN HEAR FAINT HIGHER NOTES. I TABBED IT AS THIS:
|--12----14-------9---12----14--|-----12-----------------12-----|-------------------------------|-------------------------------|-------------------------------|-------------------------------
h = Hammer On p = Pull Off / = Slide () = Natural Harmonic . = Palm Mute x = String Mute ================================================================================
Please rate this tab:
x1.0