American Hi Fi - Wait For The Sun tab

This song can be played in standard tuning or drop d as you don't play the low E string.
Don't look for timing on this tab either as I haven't put it in.
There are also two guitars in American Hi-Fi, and in this tab I'll just put down the 
more major parts of the song as most of the second guitar is the same as the first with 
more/less notes.

|---------------------------|---6-----8-----------------|-7---7-5---5------7-5---7^-|-------------5--7-----7----|---------------------------|---------------------------
|---|-3-|-2-|-0-|---|--- this chord is only played once and is held till "fine"
|--------------------|--------------------|-3/5\3---2---2h3--2-|-5/7\5---3---3----0-|--------------------|--------------------
|---------------------------------------------------|---------------------------------------------------|-----3-------5---5h7p5---5----------5-7p5-----2^---|-3h5---5-5/7-----------7---7/5--5\7-------7\3----3-|---------------------------------------------------|---------------------------------------------------
Chorus|----------------------------------------------------------|---6-----8------------------------------------------------|-7---7-5---5------7-5-----------10----10h12p10----10------|-------------5--7-----7---10h12----12----------12----12\7-|----------------------------------------------------------|---------------------------------------------------------- Don't wait for the sun.....
|----------------------------|-6-----8--------------------|---7-5---5-----7-5-----7-7^-|-----------5-7-----5-7------|----------------------------|----------------------------
|------------------------------|---6-----8--------------------|-7---7-5---5-----7-5---7^^^^^-|-------------5-7-----7--------|------------------------------|------------------------------ bend this last 7 multiple times
|------------------------|-3----------------------|-2----3--3h5-3----------|------3--------3-5--5/7-|------------------------|------------------------
|-------------------------------------------------------|-----------------------------3-------------------------|-------5---7p5---5--------2----2----3----3-3---3-5h3---|-3h5/7---7-----7---7p5/0---------0--3h5--3-3h5-3-----5-|-------------------------------------------------------|-------------------------------------------------------
|---------------------------------------------|---------------------------------------------|-------5h7p5---5----5-5----5/3--3---------2^-|-5/7---------7---5--5-5h7--5/3--3h5----------|-------------------------------------3h5-----|---2------------------------------------------
chorus|----------------------------------------------------------|---6-----8------------------------------------------------|-7---7-5---5------7-5-----------10----10h12p10----10------|-------------5--7-----7---10h12----12----------12----12\7-|----------------------------------------------------------|----------------------------------------------------------
|----------------------------|-6-----8--------------------|---7-5---5-----7-5-----7-7^-|-----------5-7-----5-7------|----------------------------
solo b5rb - bend before playing 5th fret, release to normal note and bend again () - play notes whilst string still bent
|-----------------------------------------------------|-----------------------------------------------------|-b5rb--b5rb-b5rb---b5rb--b5rb-b5rb---b5rb--b5rb-b5rb-|-----------------------------------------------------|-----------------------------------------------------|-----------------------------------------------------
|---------------------------------------------------|-5--(5)--6--(6)--5--------------5--(5)--6--(6)--5--|-7^-(9)--8^-(10)-7^--7/--b5rb---7^-(9)--8^-(10)-7^-|---------------------------------------------------|---------------------------------------------------|---------------------------------------------------
|------------------------------------------|------------------------------------------|------5-5h7---7-7/5-5-5--5/3-3-3-3-2^-----|-5h7----------------------------------5-3-|------------------------------------------|------------------------------------------
|-----------------------------------------------------|-----------------------------------------------------|-b5rb--b5rb-b5rb---b5rb--b5rb-b5rb---b5rb--b5rb-b5rb-|-----------------------------------------------------|-----------------------------------------------------|-----------------------------------------------------
|--------------------------------------------------------|-5---6--(6)--8------5---b5rb-(7)--5---6---8----10---13--|-7^--8^-(10)-10^----7^------------7^--8^--10^--12^--15^-|--------------------------------------------------------|--------------------------------------------------------|--------------------------------------------------------
|------------------------------------------------------|-15--(15-15)--15--(15-15-15-15)-15--15-15-15-15-15-15-|-17^-(19-19)--17^-(19-19-19-19)-17--17-17-17-17-17-17-|------------------------------------------------------|------------------------------------------------------|------------------------------------------------------
|----------|-15-------|-15---14^-|----------|----------|----------
|-------------------------------------8--10-|---6-----8--------10--8-8/10-\--6----x--x--|-----7-5---5------x---x-x-x--\--x----5--7--|-0-----------5----7---5-5/7--\--3----------|-------------------------------------------|-------------------------------------------
|----------------------------------------------|---6-----8----------------8--10-\--6------5-5-|-----7-5---5---5---5------x--x--\--x------x-x-|-0-------------------5h7--5--7--\--3------2-2-|----------------------------------------------|----------------------------------------------
|------------------------------------------------------------|--------------6-----8--10-10-10\8---8/10--10--------------6-|---5h7--5-7-5----7--x--x--x--x--x---5/7---7-----5h7-5-7-5---|-0------------------5--7--7--7-\5---5/7---7---0-------------|------------------------------------------------------------|------------------------------------------------------------
|------------------------10----8--------------|---8--8--10--\-------------------8\---5^-----|-7----x--x---------7-5-----5-----7\------7---|------5--7---\--0--------------------------7-|---------------------------------------------|---------------------------------------------
|--------------------------|--------------------------|-7-----7--7-7-7-7--7^-(9)-|---7----------------------|--------------------------|--------------------------
that's the whole song for you, lyrics below. I don't need to know why cause tomorrow I'll be fine I should learn to be still if I close my eyes I'd realise what you meant CHORUS Don't wait for the sun it could turn black any day I lost my head in the clouds when will this haze go away? I never wanted this Now it's all I've got someone else is keeping time I think I'm falling apart if you were me would you do it like I do? Chorus Solo Don't wait for the sun it could turn black any day I lost my head in the clouds when will this haze go away? so don't wait for the sun Don't wait for the sun Don't wait for the sun Cause it could turn black any day You're all that I wanted e-mail andrewbiles@hotmail.com for and questions or whatever u want
Tap to rate this tab
 
# A B C D E F G H I J K L M N O P Q R S T U V W X Y Z