Amon Amarth - Fate Of Norns tab

                          Amon Amarth - Fate Of Norns

The way this tab is set you can play the song in standard tuning and it will sound pretty close.


           Intro

|----------------------------||----------------------------||----------------------------| 5x|----------------------------||---------6----6-------4---4-||--4-4-4----4----4-4-4---4---|
Riff A
|------------------------------------------------------||------------------------------------------------------||------------------------------------------------------||------------------------------------------------------||--------6----6-------4---4----------------------------||-4-4-4----4----4-4-4---4-----4-4-4-7-4-7--4-4-4-6-4-6-|
Riff B
|----------------------------------------------------||----------------------------------------------------||----------------------------------------------------||----------------------------------------------------||-------4---4---------------------4---4--------------||-2-2-2---2---2-2-2-6-2-6---2-2-2---2---2-2-2-6-2-6--|
Riff C
|----------------------------------------------||----------------------------------------------||--1------3-4-3-1-4/8---3--4--1-4-1-3-4-3------| 2x|------------------------------------------4---||----------------------------------------------||----------------------------------------------|
Riff D
|----------------------------------------------------------------------------||----------------------------------------------------------------------------||----------------------------------------------------------------------------||----------------------------------------------------------------------------||------2-2----4-4----5-5----7-7----7-7----9-9----10-10----12-12----5-5----7--||--0000-0-0000-0-0000-0-0000-0-0000-0-0000-0-0000--0--0000--0--0000-0-0000-0-|
PM ---- - ---- - ---- - ---- - ---- - ---- - ---- - ---- - ---- - ---- -
------------------------------------------------|------------------------------------------------|------------------------------------------------| 4x------------------------------------------------|7----9-9----10-10----9-9----4-4----9-9----12-12-|-0000-0-0000--0--0000-0-0000-0-0000-0-0000--0---| ---- - ---- - ---- - ---- - ---- - ---- -
Riff E|----------------------------------------------------------------------------||----------------------------------------------------------------------------||----------------------------------------------------------------------------||----------------------------------------------------------------------------||--22222222224444444444555555555577777777779999999999910101010101010555555555|----------------------------------------------------------------------------
------------------------------------------------------------------------|------------------------------------------------------------------------|------------------------------------------------------------------------|------------------------------------------------------------------------| 3x
5777777777799999999999101010101010109999999999999999991212121212121212--|------------------------------------------------------------------------|
Riff F
|----------------------------------------------------------------------------||----------------------------------------------------------------------------||----------------------------------------------------------------------------||----------------------------------------------------------------------------||--22222222224444444444555555555577777777779999999999910101010101010555555555|----------------------------------------------------------------------------
-----------------------------------------|-----------------------------------------|-----------------------------------------|-----------------------------------------|57777777777-9-9-10-10-9------12----------|-----------------------------------------|
Riff G|------------------------||------------------------||------------------------||------------------------||--44444444444444444444--||--22222222222222222222--|
Riff H|-------------------------------------------------------------||-------------------------------------------------------------||-------------------------------------------------------------||-------------------------------------------------------------| 4x|-------4---4-------2---2--------------------------666666666--||-2-2-2---2---2-2-2---2---2-2-2-5-2-5--2-2-2-4-2-4-444444444--|
|----------------------------------------------||----------------------------------------------||--1------3-4-3-1-4/8---3--4--1-4-1-3-4-3------| 6x|------------------------------------------4---||----------------------------------------------||----------------------------------------------|
fade out This is the entire song written out in the riffs so you can know how it all goes. Intro Intro Intro Intro Intro Riff A Riff B Riff A Riff B Riff A Riff B Riff A Riff B Riff A Riff B Riff A Riff B Riff C Riff C Riff D Riff D Riff D Riff D Riff E Riff E Riff E Riff F Riff G Riff H Riff H Riff H Riff H Riff C Riff C Riff C Riff C Riff C Riff C Enjoy
Tap to rate this tab
 
# A B C D E F G H I J K L M N O P Q R S T U V W X Y Z