Amon Amarth - Death In Fire tab

Death in fire

From the album versus the world

If something is wrong, please write a comment

I know that the original song is tuned in drop b, but i wrote this tab in
eadghe because its easier to play.

> Only guitar 1 <

Verse 1:  played 4 times

||-------------------|--------------------|||-------------------|--------------------|||-------------------|--------------------|||-------------------|--------------------|||----7-9---7-9---12-|-10---10---9-10---7-|||-------------------|--------------------|
|------------------|---------------------||------------------|---------------------||------------------|---------------------||------------------|---------------------||---7-9---7-9---12-|-10---10---9-10---7--||------------------|---------------------|
|-----------------|-----------------|-----------------|-------------------|||-----------------|-----------------|-----------------|-------------------|||-----------------|-----------------|-----------------|-------------------|||-----------------|-----------------|-----------------|-------------------|||---7-9---7-9---7-|---7-9---7-9---7-|-9-9-9-9-9-9-9-9-|-10-10-10-10-------|||-----------------|-----------------|-----------------|-------------------||
Bridge: played 4 times
||----------------------------------|--------------------------||||----------------------------------|--------------------------||||----------------------------------|--------------------------||||----------------------------------|-----------------4--5—-2--||||----------------------------------|-----------------4--5--2--||||----------------------------------|-----------------2--3--0--||
Verse 1: played 2 times
||-------------------|--------------------|||-------------------|--------------------|||-------------------|--------------------|||-------------------|--------------------|||----7-9---7-9---12-|-10---10---9-10---7-|||-------------------|--------------------|
|------------------|---------------------||------------------|---------------------||------------------|---------------------||------------------|---------------------||---7-9---7-9---12-|-10---10---9-10---7--||------------------|---------------------|
|-----------------|-----------------|-----------------|-------------------|||-----------------|-----------------|-----------------|-------------------|||-----------------|-----------------|-----------------|-------------------|||-----------------|-----------------|-----------------|-------------------|||---7-9---7-9---7-|---7-9---7-9---7-|-9-9-9-9-9-9-9-9-|-10-10-10-10-------|||-----------------|-----------------|-----------------|-------------------||
Interlude: played 7 times
||---------------------------------|---------------------------------|||---------------------------------|---------------------------------|||---------------------------------|---------------------------------|||-9t2-9t2-9t2-9t2-9t2-9t2-9t2-9t2-|-9t2-7t2-7t2-7t2-7t2-4t2-4t2-4t2-|||---------------------------------|---------------------------------|||---------------------------------|---------------------------------|
|-----------------------------------------||-----------------------------------------||-----------------------------------------||-----------------------------------------||-10t3-10t3-10t3-10t3-10t3-10t3-10t3-10t3-||-----------------------------------------|
|-----------------------------------------|||-----------------------------------------|||-----------------------------------------|||-----------------------------------------|||-10t3-10t3-10t3-10t3-10t3-12t3-12t3-12t3-|||-----------------------------------------||
Verse 2: played 4 times (in 16th)
||---------------|----------------|----------------|----------------|||---------------|----------------|----------------|----------------|||---------------|----------------|----------------|----------------|||--9-------7----|----------------|-----------7----|----------------|||------------10-|-(10)----9--10--|-(10)--------10-|-(10)----9--7---|||---------------|----------------|----------------|----------------|
|--------------|------------|------------|--------------|||--------------|------------|------------|--------------|||--------------|------------|------------|--------------|||-7------------|------------|------------|--------7-----|||---------10-9-|-(9)--------|-(9)--------|-(9)----------|||--------------|------------|------------|--------------||
Bridge: played 1 time
||----------------------------------|--------------------------||||----------------------------------|--------------------------||||----------------------------------|--------------------------||||----------------------------------|-----------------4--5—-2--||||----------------------------------|-----------------4--5--2--||||----------------------------------|-----------------2--3--0--||
Solo:
||---------------|--------------------|----------|-----------------|||---------------|--------------------|----------|-----------------|||---------------|--------------------|----------|-----------------|||-9----9-7------|----------7---------|----------|-----------------|||----------10-9-|-----9-10-----10-9--|-9--------|-9-10--10-9--7---|||---------------|--------------------|----------|---------------7-|
|-------------------------|-----------------------||-------------------------|-----------------------||----7----7--9b7r-9-------|----7----b11r12--------||-------------------------|----------------12-----||-9----9--------------9---|-9---------------------||-------------------------|-----------------------|
|---------------------|------------------------||---------------------|------------------------||----7----7--9------7-|-9----11--11-12-11------||---------------------|------------------------||-9----9--------------|------------------------||---------------------|------------------------|
|--------------------------|------------------------||--------------------------|------------------------||-16----16-14h16p14--------|------------14----------||--------------------17-16-|-----16-17------16-17---||--------------------------|------------------------||--------------------------|------------------------|
|-----------|----------------------||-----------|----------------------||-18--------|-18--19-19-19-18------||-----------|-------------------19\||-----------|----------------------||-----------|----------------------|
|----------10-14-10-------|----------10-14-10-------||-12----12----------14----|-12----12----------14----||----11----------------11-|----11----------------11-||-------------------------|-------------------------||-------------------------|-------------------------||-------------------------|-------------------------|
|-12----12-15----15-14-----|-12----12-15-14\------------|||----12-------12-------12--|----12----------------------|||--------------------------|----------------------------|||--------------------------|----------------------------|||--------------------------|----------------------------|||--------------------------|----------------------------||
Verse 1: played 1 time
||-------------------|--------------------|||-------------------|--------------------|||-------------------|--------------------|||-------------------|--------------------|||----7-9---7-9---12-|-10---10---9-10---7-|||-------------------|--------------------|
|-------------------|--------------------||-------------------|--------------------||-------------------|--------------------||-------------------|--------------------||----7-9---7-9---12-|-10---10---9-10---7-||-------------------|--------------------|
|-----------------|-----------------|-----------------|-------------------|||-----------------|-----------------|-----------------|-------------------|||-----------------|-----------------|-----------------|-------------------|||-----------------|-----------------|-----------------|-------------------|||---7-9---7-9---7-|---7-9---7-9---7-|-9-9-9-9-9-9-9-9-|-10-10-10-10-------|||-----------------|-----------------|-----------------|-------------------||
Outro:
||-------------------|--------------------|||-------------------|--------------------|||-------------------|--------------------|||-------------------|--------------------|||----7-9---7-9---12-|-10---10---9-10---7-|||-------------------|--------------------|
|-------------------|--------------------||-------------------|--------------------||-------------------|--------------------||-------------------|--------------------||----7-9---7-9---12-|-10---10---9-10---7-||-------------------|--------------------|
|-----------------|-----------------|-----------------||-----------------|-----------------|-----------------||-----------------|-----------------|-----------------||-----------------|-----------------|-----------------||---7-9---7-9---7-|---7-9---7-9---7-|-----------------||-----------------|-----------------|-----------------|
|---------------------------|---------------------------|||-12-----12-----12-----12---|-15-----15-----------------|||-14b16—-14b16--14b16--14b16|-18b20--18b20--------------|||---------------------------|---------------------------|||---------------------------|---------------------------|||---------------------------|---------------------------||
Tabulature Legend _______________________________________________ b= banding r= rebanding t= tapping \= slide down (to “nowhere”)
Tap to rate this tab
 
# A B C D E F G H I J K L M N O P Q R S T U V W X Y Z