Anaal Nathrakh - Bellum Omnium Contra Omnes tab

tuning-standard CC-|---G-|---Eb|---Bb|---F-|---C-|---
t-tremolo pick
intro|----------------------------------------------------------||----------------------------------------------------------||-101010101010------101010101010-----------101010101010----||-101010101010------101010101010-----------101010101010----||-8-8-8-8-8-8--2-----8-8-8-8-8-8-7---6-----8-8-8-8-8-8--2--||--------------0-----------------5---4------------------0--|
DAAAAGGGGHHH FUCKING BULLSHIT!!!|-----------------------------||-----------------------------||-101010101010----------------||-101010101010-------------3--||-8-8-8-8-8-8--7---6-------3--||--------------5---4-------1--|
t t t t t t t t t t t|---------------------------------------||---------------------------------------||-9---10------10-9-10-9---10-7--14--13--||-9---10------10-9-10-9---10-7--14--13--||-7---8-------8--7-8--7---8--5--12--11--||---------0-----------------------------|
t t t t t t t t t t t|---------------------------------------||---------------------------------------||-9---10------10-9-10-9---10-7----------||-9---10------10-9-10-9---10-7----------||-7---8-------8--7-8--7---8--5----------||---------0---------------------7--6----|
t t t t t t t t t t t|---------------------------------------||---------------------------------------||-9---10------10-9-10-9---10-7--14--13--||-9---10------10-9-10-9---10-7--14--13--||-7---8-------8--7-8--7---8--5--12--11--||---------0-----------------------------|
t t t t t t t t t t t|---------------------------------------||---------------------------------------||-9---10------10-9-10-9---10-7----------||-9---10------10-9-10-9---10-7----------||-7---8-------8--7-8--7---8--5----------||---------0---------------------7--6----|
|---------------||---------------||-101010101010--||-101010101010--||-8-8-8-8-8-8---||---------------|
verse t t t t t t|------------------------------||------------------------------||-9----------9---10-7--14--13--||-9----------9---10-7--14--13--||-7----------7---8--5--12--11--||----0-------------------------|
t t t t t t|----------------------------||----------------------------||-9----------9---10-7--------||-9----------9---10-7--------||-7----------7---8--5--------||----0-----------------7--6--|
t t t t t t|------------------------------||------------------------------||-9----------9---10-7--14--13--||-9----------9---10-7--14--13--||-7----------7---8--5--12--11--||----0-------------------------|
t t t t t t|----------------------------||----------------------------||-9----------9---10-7--------||-9----------9---10-7--------||-7----------7---8--5--------||----0-----------------7--6--|
chorusbellum, omnium, contra, omnes t t|----------------------------||-------7--------------------||-------8--------------------| repeat this riff 3 more times|-7-----8-------7------------||-7-----6-------7------------||-5-------------5-------8--4-|
t|----|----|----|-7--|----|----
verse t t t t t t|------------------------------||------------------------------||-9----------9---10-7--14--13--||-9----------9---10-7--14--13--||-7----------7---8--5--12--11--||----0-------------------------|
t t t t t t|----------------------------||----------------------------||-9----------9---10-7--------||-9----------9---10-7--------||-7----------7---8--5--------||----0-----------------7--6--|
t t t t t t|------------------------------||------------------------------||-9----------9---10-7--14--13--||-9----------9---10-7--14--13--||-7----------7---8--5--12--11--||----0-------------------------|
t t t t t t|----------------------------||----------------------------||-9----------9---10-7--------||-9----------9---10-7--------||-7----------7---8--5--------||----0-----------------7--6--|
chorusbellum, omnium, contra, omnes t t|----------------------------||-------7--------------------||-------8--------------------| repeat this riff 3 more times|-7-----8-------7------------||-7-----6-------7------------||-5-------------5-------8--4-|
t|----|----|----|----|----|-7--
bridge t t t t t t t t t|------------------------------------||------------------------------------||------------------------------------| repeat this riff 3 more times|-----7-----8-------------7-----10-6-||---7---------8---------7-------10-6-||-5-------------6-----5---------8--4-|
|---------------||---------------||-101010101010--||-101010101010--||-8-8-8-8-8-8---||---------------|
t t t t t t t t t|------------------------------------||------------------------------------||------------------------------------| repeat this riff 3 more times|-----8-----9-------------8-----11-7-||---8---------9---------8-------11-7-||-6-------------7-----6---------9--5-|
|----------------------------------------------------------||----------------------------------------------------------||-101010101010------101010101010-----------101010101010----||-101010101010------101010101010-----------101010101010----||-8-8-8-8-8-8--2-----8-8-8-8-8-8-7---6-----8-8-8-8-8-8--2--||--------------0-----------------5---4------------------0--|
|---------------------||---------------------||-101010101010--------||-101010101010--------||-8-8-8-8-8-8--7---6--||--------------5---4--|
chorusbellum, omnium, contra, omnes t t|----------------------------||-------7--------------------||-------8--------------------| repeat this riff 3 more times|-7-----8-------7------------||-7-----6-------7------------||-5-------------5-------8--4-|
|---------------------------------------------------------||---------------------------------------------------------||-101010101010------101010101010--------------------------||-101010101010------101010101010-----------2------------3-||-8-8-8-8-8-8--2-----8-8-8-8-8-8-7---6-----2------------3-||--------------0-----------------5---4-----0------------1-|
t t t t t t t t t t t|--------------------------------------||--------------------------------------||-9---10------10-9-10-9---10-7---------||-9---10------10-9-10-9---10-7---------||-7---8-------8--7-8--7---8--5---------||---------0---------------------7--6---|
t t t t t t t t t t t|---------------------------------------||---------------------------------------||-9---10------10-9-10-9---10-7----------||-9---10------10-9-10-9---10-7----------||-7---8-------8--7-8--7---8--5----------||---------0---------------------7--6----|
t t t t t t t t t t t|--------------------------------------||--------------------------------------||-9---10------10-9-10-9---10-7---------||-9---10------10-9-10-9---10-7---------||-7---8-------8--7-8--7---8--5---------||---------0---------------------7--6---|
t t t t t t t t t t t|---------------------------------------||---------------------------------------||-9---10------10-9-10-9---10-7----------||-9---10------10-9-10-9---10-7----------||-7---8-------8--7-8--7---8--5----------||---------0---------------------7--6----|
intro|------------------||------------------||-101010101010-----||-101010101010-2---||-8-8-8-8-8-8--2---||--------------0---|
end
Tap to rate this tab
 
# A B C D E F G H I J K L M N O P Q R S T U V W X Y Z