Anal Cunt - Ha Ha Your Wife Left You tab

|----------------------||----------------------||----------------------||----------------------||-7--5-7-5---3--2-3-3--||-7--5-7-5---3--2-3-2--|
|--------------------------------------||--------------------------------------||--------------------------------------||--------------------------------------||-777777777--33333333--22222222--0-0-0-||-777777777--33333333--22222222--0-0-0-|
|----------------------||----------------------||----------------------||----------------------||-7--5-7-5---3--2-3-3--||-7--5-7-5---3--2-3-2--|
|----------------------||----------------------||----------------------||----------------------||-7--5h7p5---3--2h3p3--||-7--5h7p5---3--2h3p2--|
|----------------------||----------------------||----------------------||----------------------||-7--5-7-5---3--2-3-3--||-7--5-7-5---3--2-3-2--|
|--------------------------------------||--------------------------------------||--------------------------------------||--------------------------------------||-777777777--33333333--22222222--0-0-0-||-777777777--33333333--22222222--0-0-0-|
|----------------------||----------------------||----------------------||----------------------||-7--5-7-5---3--2-3-3--||-7--5-7-5---3--2-3-2--|
|--------------------------------------||--------------------------------------||--------------------------------------||--------------------------------------||-777777777--33333333--22222222--0-0-0-||-777777777--33333333--22222222--0-0-0-|
yep, thats it hope you enjoy it;)
Tap to rate this tab
 
# A B C D E F G H I J K L M N O P Q R S T U V W X Y Z