Anansie Skunk - Hedonism tab

SKUNK ANASIE
hedonism
Mib, Lab, R?b, Solb, Sib, Mib
disto:
vol: 50%
gain: 100%
Tone: 40%
******************************************************
 INTRO:
------------------------9----------9-------------10---9h10--10--12p10--10--10------------------------------------------------------------------------------------9--9---------------------------------------------------------------------------
---------------------------------------------------------------------------------------------------------------9--------------------9---------9-------9--------9--------------------9---------------(11)----11----------------9h11-------------------------------------------------------------------------------
-----------------9------------9-------9-----------------10------9h10--10--12p(10)-10----------------9--------------------------------------11--------------------------------------9----------------------------------------------------------------------------------
---------------------------------------------------------------------------------------------------------9-------------------9h11p9---------------9-----------------9h11------------9----------11-------------9h11------------------------------------------------------------------
-------------------------------------9-------9----------------10-----9h10--10------12------10----------------9------------------------9-----------------9------------------------------------------9--------------------------------------------------------------------------------------
****************************************** first verse:Happy now I see you feel no pin at all it seems...----------------------------------------------------------------------------------------------------------9----9-----------h11p9--------9------------9-------------9h11-----------11---------11-------------------------------------------------------------------------------------------
---------------------------------9------9---9--9--9------------10---------9h10--10----12-----10--10-10-10-----------9--------------------------9---------------------9-------------------------------------------------9-------------------------------------------------------------------------------------------------
I wonder if you think of me at all....---------------------------------------------------------------9---9----------------9----9------------------9-----------------9h11-----------------------11--------------9h11--------------------------------------------------------------------------------------------------------------------------
----------------------------------9--------9--------------10-------9h10--10---------12--9----10-------------9--------------------------------------------------------------------------------------------9--9-----------------------------------------------------------------------------------------------
or are the special moods for ....------------------------------------------------------------------------------------------------------------9----9--9--------9--9----9--9--9-------------9------------------------------------------------11-----------------9h11---------------------------------------------------------------------------
happy now....--------------9--9--9-------9-----9-----9----------------10----10-10-10--10-----10----12--------------------9---------------------------------------------------------------------------------------------9--9----------------------------------------------------------------------------------------------
------9-----9-----9-----9-----9-----9-----9---------12----12----12----12----12----12----12------------------------------------------------------------------------------------------------------------------------------------------------------------------------------------------------------------------
************************************************chorus-------------------------------------------------------------------------------------------------------------------------------4------4---4---4---------2----2----2--2---2------4------4---4---4---------2----2----2--2---2------2------2---2---2---------0----0-------0---0--------------------------
---------------------------------------------------------------------------------------------------4----4--4--4--4--4--4--4-------------------------4----4--4--4--4--4--4--4---------------------------------2-----2-----2----------------------------------------------------------------------------
**********************************************----------------------------------------------------------------------------------------------------4------4----4--4---4-----------2-------2---2-----4------4----4--4---4----2------2-------2---2-----2------2-------2---2----2------0-------0---0-----------------------------0----------------------
----------------------------------------------------------------------------------------------------2--2-----2--2--2--2--2--2--2---------------------2--2-----2--2--2--2--2--2--2---------------------0-----------0-----0-----0-----------------------------------------------------------------------
---------------------------------------------------------------------------------------------------------------------------4---------4---4---4--4---2-----2---2--2---2------4---------4---4---4--4---2-----2---2--2---2------2---------2---2---2------0-----0---0--0---0-SL4--------------------------
----------------------------------------------------------------------------------------------------4--4--4--4--4--4--4------------------------------4--4--4--4--4--4--4---------------------------------2-----2-----2--------------------------------------------------------------------------------
-----------------------------------------------------------------------------------------------------------------------------------------------------4------4------4---4------4-----------------------4------4------4---4------4-----------------------2------2----------2------2--------------------
----------------------------------------------------------------------------------------------------------------------2-------------------------------2----------------2-------------------------------2----------------0-------------------------------0---------------------------------------------
************************************************* second verse lilke the first ************************************************* second chorus like the first ************************************************ Bridge guit1 with wha-wha ---------------------------------------------- ----------------------------------------------
-----------13---------11----------11---------------------13--11h13------11h13------11--11-----11--11---11-----------------------------------11--11---11---------------------------------
-14p11----------------------------------------------14p11------12p11-------------------------------------------------13p11---------------11--------------------------------11--11h13------------------------------------------------------------------------------------------------------
this one 3 times:--------------------------------------------------------------------------------------------------------11-----------11---------11--------------------13----11h13------11h13------13--11---11---11--11------------------------------------------------------------------------------
--------------------------------------------------------------------------------------------13p11----11full------13p11----11-----13p11----------13---------11--------13------11------13p11----------------------------------------------------------------------------------------------
then: just because you ..-------------------------------------------------------------------------------------14-----------11-------------11------11-------------------13--11--11h13-----11--13----11-----11--11---11------------------------------------------------------------------------------------------------------------------------
-14--14--14--14--14--14--14--14--14--14--14--14--------------------------------------------------------------------------------------------------------------------------------------------------------------------------------------------------------------------------------------------------
guit2disto-----------------------------------------------------------------------------------------------------------------------------------------------------------6---6-------8---8--------------------------------6---6-------8---8--------------------------------4---4-------6---6------------------------
--------------------------------------------------------------------------------------------------------------------------------------------------------------13---13---------------13---13--------------------13---13---------------13---13--------------------11---11---------------11---11---------
-----------------------------------------------------------------------------------------------------------------------------------------------------------6---6-------8---8-----------------11-------------6---6-------8---8-----------------11-------------4---4-------6---6-----------------9------
--------------------------------------------------------------------------------------------------------------------------------------------------------11-11-11-11-11-11-11-11-11-11-11-11--------------11-11-11-11-11-11-11-11-11-11-11-11-----------------9-----9-----9-----9-----9-----9----------
**************************************************chorus3guit1distofigu4______________________________________________(---------------------------------------------------------------------------------------------------------------------------------------6------------------4-----4------4--4-----4---------6------------------4-----4------4--4-----4---------4------------------2-----2---------2-----2---6----------------------
------------------------------------------------)-------------------------------------------------------6-----6----6---6------6---6---6---6---6---6---6----6-----6----6---6------6---6---6---6---6---6---6----4-----4----4--------------4-------4-------4---------------------------------------------------------
guit2 clear -----&2-------------------------------------------- -----&4-------------------------------------------- -----&3-------------------------------------------- -----&4-------------------------------------------- -----&4-------------------------------------------- -----&2-------------------------------------------- --------------------------------------------------- -----&6-------------------------------------------- -----&6-------------------------------------------- -----&6-------------------------------------------- -----&4-------------------------------------------- --------------------------------------------------- *************************************************** then 3 times:figu5 guit1 disto --------------------------------------------------- ---------------------------------------------------
-------------------------------4----------4-----------6------6----6---6----6---4--4----------4-----------6------6----6---6----6---4--2----------2-----------4------4--------4----4---2----------------------
---------------------------------------------------------------------------------------------------------4-----4---4--------4---4---4---4---4---4---4-------4-----4---4--------4---4---4---4---4---4---4-------2----2-----------------2-------2-------2-----------------------------------------------------------
guit2 clear ----&4---------------------------&2---------------- ----&4---------------------------&3---------------- ----&4---------------------------&4---------------- ----&6---------------------------&4---------------- ----&6---------------------------&2---------------- ----&4--------------------------------------------- *************************************************** and finally, 1 time figu4 and then figu6 guit1 ---------------------------------------------------------- ----------------------------------------------------------
--------------------------------------------------------4------6--------6----------6-----6-----6--------4---------4------6--------6----------6-----6-----6--------4---------2------4--------4----------------4-----4--------2-----------
guit2 ---&4----------------------------------------------------- ---&4----------------------------------------------------- ---&4----------------------------------------------------- ---&6----------------------------------------------------- ---&6----------------------------------------------------- ---&4----------------------------------------------------- ------------&2-------------------------------------------- ------------&2-------------------------------------------- ------------&4-------------------------------------------- ------------&4-------------------------------------------- ------------&2-------------------------------------------- ------------&4-------------------------------------------- ********************************************************** guit1 clear with delay
--------------11-------------11----11--11-----------------------12--11h12--12--14----12--12p11-------------------------------------------------------------------------------------------------------------11---11------------------------------------------------------------------------------------------
------------------------------------------------------------------------------------------11-------------------11-----------------11-------------------------11----------------11------------------------13-------------11h13-------------------------------------------------------------------------------
----------------------------11--------11--------------------12-----11h12-12---14--------12-----11--------------------------------------------11---------------------------------------------------------11---11---------------------------------------------------------------------------------------------
-------------------------------------------------------------------------------------11-------11----------------11--11---------11----------11---------------11--------------11-----------------------------13-------------11h13-----------------------------------------------------------------------------
--------11-----11--------------11-----11----11------------12-----12--11h12--11---14-----12----12p11------------------------------------------------------------------------------------------------------11--11---------------------------------------------------------------------------------------------
----------------------------------------------------------------------------------11------11----------------------11----11-------11-------11--------------------11---------------11--------------------------13----------------11h13------------------------------------------------------------------------
-----------11-----11--11-----11--11----11--11----------------12-----12--11h12--12--14----12--12-11---------------------------------------------------------13---------------------------------------------11------------------------------------------------------------------------------------------------
-----------------------------------------------------------------------------------------------------------------------------11-----------------------------------------11-----------------------------------------13---------------------------------------------------------------------------------------****************************************************************************************************http://www.ifrance.com/Pollluxlife/
Tap to rate this tab
 
# A B C D E F G H I J K L M N O P Q R S T U V W X Y Z