Andrew Lloyd Webber - Cats tab

                              Memory (from Cats)                                


                                             Chris (tabbed by Veselov Stanislav)

http://www.youtube.com/watch?v=ZacS_59W1ug&feature=related



E||---------------------------|--------------------------|B||---1--------1-----------0--|--1--3--1-----1--------1--|G||*--0--0--------0--------0--|-----------2--2--2--------|D||*--------2--------2-----2--|--------------------2-----|A||---3-----------------3-----|--------------0-----------|E||---------------------------|--------------------------|
--------------------------|--------------------------|-----------0--1--3--1-----|--------------------------|--2--------2-----------0--|--2--------2--------------|-----2-----2--------------|-----3--------3--------3--|--------0-----------------|--------3--------3--------|--------------------------|--------------------1-----|
--------------------------|-----------------0-----3--|--3-------------0--1----|--------------------------|--------0-----0-----0-----|-----1-----3-------1----|--0--2--0--------------0--|-----0-----0--------------|--------0----------2----|-----------3--2-----2-----|--2-----------------------|--0----------------3----|-----------------2--------|--------------------------|------------------------|--------------0-----------|--------------------------|------------------------|
--3--5----7--8--7--5--3--|--L----------------0--------|-----6-------5-----------|-----5-5--------1--1----1S--|-----7-------5-----------|-----4-4--------0--0--------|-----0-------------------|-------------2--------------|-------------0-----------|----------0-----------------|-------------------------|----------------------------|
--3--------3--------------|-------------------------|--3--3--------3-----------|----------1--1-----------|--4-----4--------4--------|--0--2-------------0-----|--5--------------------3--|----------------2--------|--------------------------|-------------3--------3--|--------------------3-----|-------------------------|
-----------------0---------||-----------0--------------|--------1-----------1------||--0-----------0-----0-----|-----0-----0-----------0--*||--------0--------0-----2--|--2-----------2-----------*||-----2--------------------|---------------------------||--------------------3-----|---------------------------||--0-----------------------|
----------------------0--|-------------------------|-----------0--------0-----|-------------0-----------|--0-----0----------------|--0-----------0--------1--|-----2--L----------0-----|-----0-----2-----2--L----|--------0--------0--------|--3-------------2--------|--------------3----------|-----2--------------------|-------------------------|--------3----------------|--------------------3-----|-------------0-----------|-------------------------|--0-----------------------|
--------------------------|--------------------------|-----3--------3--------3--|-----------------3--------|--0-----0--5-----4--------|--4-----------4-----4-----|--------------5-----5-----|-----5-----5-----------5--|--------------------------|--------5-----------------|--------------------------|--------------------------|
--3--------3--------3-----|--7----5--3--2--------2--|--------2-----5----3s--7--|-----5--------5-----5-----|--5-------------1--------|--1-----0-----------------|--------4--------4--5-----|--5----------------2-----|-----2--0-----------------|--5-----------------------|-------------0-----------|--------------------------|--------------------------|-------------------------|--------------------------|--------------------------|-------------------------|--------3-----------------|
--7--------7--------7-----|-----9--------10--------5--|-----8--------8--------8--|--------8---------7--------|--------9--------9--------|--9--------9---------7-----|--------------------------|---------------0-----------|--------------------0-----|---------------------------|--0-----------------------|---------------------------|
-----------------5--------|--8--------8------------7-|--7-----------7-----7-----|--8--8--------8-----------|-----5-----5-----------5--|--9-----9--------9--------|--------7-----------------|--------------------------|--------------------------|--------------------------|--------------------------|--8-----------------8-----|
--8-10---8-5-8---------8------|---------7-8-10---8-3-5-----|----------------10--------10--|----------------------6--6--|--------------------9---------|--9-------------------5-----|-------------7----------------|-----7----------------------|------------------------------|----------------------8-----|------------------------------|----------------------------|
-----5-----------------5--|--------0-----------------|--------------0--3--|--------6--------6--8-----|--8--6--------------------|--0--------0--------|--5--------5--------------|-----------0-----------0--|-----0-----0--------|--------------------------|--------------2-----2-----|--------2--2--------|--------------8-----------|-----------------2--------|--------------------|--------------------------|--------0-----------------|--------------------|
--3-------------0--1----|--3--5----7--8--7--5--3--|--L----------------0--------|-----1-----3-------1----|-----6-------5-----------|-----5-5--------1--1----1S--|--------0----------2----|-----7-------5-----------|-----4-4--------0--0--------|--0----------------3----|-----0-------------------|-------------2--------------|------------------------|-------------0-----------|----------0-----------------|------------------------|-------------------------|----------------------------|
--3--------3--------------|-------------------------|-----------------0--------|--3--3--------3-----------|----------1--1-----------|--------1-----------1-----|--4-----4--------4--------|--0--2-------------0-----|-----0-----0-----------0--|--5--------------------3--|----------------2--------|--2-----------2-----------|--------------------------|-------------3--------3--|--------------------------|--------------------3-----|-------------------------|--------------------------|
-----------0--------------|----------------------0--|-------------------------|--0-----------0-----0-----|-------------0-----------|--0-----0----------------|--------0--------0-----2--|-----2--L----------0-----|-----0-----2-----2--L----|-----2--------------------|--3-------------2--------|--------------3----------|--------------------3-----|-------------------------|--------3----------------|--0-----------------------|-------------0-----------|-------------------------|
-----------0--------0-----|--------------------------|--0-----------0-----1--1--|-----3--------3--------3--|--------0--------0--0-----|--0-----0--5-----4--------|-----2--------------------|--------------5-----5-----|--------------------3-----|--------------------------|--0-----------------------|--------------------------|
--------------------------|--3--------3--------3-----|--7----5--3--2--------2--|-----------------3--------|-----5--------5-----5-----|--5-------------1--------|--4-----------4-----4-----|--------4--------4--5-----|--5----------------2-----|-----5-----5-----------5--|--5-----------------------|-------------0-----------|--------5-----------------|--------------------------|-------------------------|--------------------------|--------------------------|-------------------------|
--------2-----5----3s--7--|--7--------7--------7-----|--1-----0-----------------|-----8--------8--------8--|-----2--0-----------------|--------9--------9--------|--------------------------|--------------------------|--------------------------|--------------------0-----|--------3-----------------|--0-----------------------|
-----9--------10--------5--|-----------------5--------|--------8---------7--------|--7-----------7-----7-----|--9--------9---------7-----|-----5-----5-----------5--|---------------------------|--------7-----------------|---------------------------|--------------------------|---------------------------|--------------------------|
--8--------8------------7-|--8-10---8-5-8---------8------|--8--8--------8-----------|----------------10--------10--|--9-----9--------9--------|--------------------9---------|--------------------------|-------------7----------------|--------------------------|------------------------------|--8-----------------8-----|------------------------------|
---------7-8-10---8-3-5-----|-----5-----------------5--|----------------------6--6--|--------6--------6--8-----|--9-------------------5-----|--5--------5--------------|-----7----------------------|--------------------------|----------------------8-----|--------------8-----------|----------------------------|--------------------------|
--------0-----------------|--------------0--3--|--3-------------0--1----|--8--6--------------------|--0--------0--------|-----1-----3-------1----|-----------0-----------0--|-----0-----0--------|--------0----------2----|--------------2-----2-----|--------2--2--------|--0----------------3----|-----------------2--------|--------------------|------------------------|--------0-----------------|--------------------|------------------------|
--3--5----7--8--7--5--3--|--L----------------0--------|-----6-------5-----------|-----5-5--------1--1----1S--|-----7-------5-----------|-----4-4--------0--0--------|-----0-------------------|-------------2--------------|-------------0-----------|----------0-----------------|-------------------------|----------------------------|
--3--------3--------------|-------------------------|---------------------||--3--3--------3-----------|----------1--1-----------|--------1------------||--4-----4--------4--------|--0--2-------------0-----|-----0--0------------||--5--------------------3--|----------------2--------|--2-----2------------||--------------------------|-------------3--------3--|--------3------------||--------------------3-----|-------------------------|---------------------||
Tap to rate this tab
 
# A B C D E F G H I J K L M N O P Q R S T U V W X Y Z