Andrew York - Evening Dance tab

                                  EVENING DANCE
                      (From the 1990 Album VIRTUOSO DUETS)

Music by Andrew York
Transcribed by Ryan Owen

Gtr I|--------0-|---------|-0------0-|---------|-------0----||----------|----0----|----0-----|-3-------|---------3--||-9--------|-7-------|----------|----4----|-5p4-5------||----9-----|---------|----------|---------|------------||----------|---------|----------|---------|------------||----------|---------|----------|---------|------------|
|
| Gtr II|-0--------|---------|-0--------|---------|------------||-0--------|---------|-0--------|-3-------|-1-------3--||----------|-7-------|-0--------|-2-------|-0-------0--||-5--------|-7-------|-2--------|---------|------------||-7--------|---------|----------|-2-------|-0-------2--||----------|-7-------|----------|---------|------------|
|-----0-------|-0--------|---------|-12---------12-|-10-----------||-5p3---8-7---|----0---5-|-3--0----|-----12--------|-----12-------||-----------7-|----------|---------|---------------|--------------||-------------|----------|---------|---------------|--------------||-------------|----------|---------|---------------|--------------||-------------|----------|---------|---------------|--------------|
|
|-------------|-0--------|---------|--3-----2-0----|--2-----0-----||-3-------3---|-0--------|-3-------|--0------------|--3-------3---||-0-------2---|-0--------|-2-------|--------2-0----|--2-----0-----||---------0---|-2--------|---------|--2------------|----------4---||-3-----------|----------|-2-------|---------------|--2-----------||-------------|----------|---------|---------------|--------------|
|-12---------12-|-10--------|----------12-10--||-----12--------|-----12----|-13p12-13--------||---------------|-----------|-----------------||---------------|-----------|-----------------||---------------|-----------|-----------------||---------------|-----------|-----------------|
|
|--0------------|-----------|--0-----0--3--2--||--0-------0----|--3--------|--1-----------3--||--0-----7-0----|------4----|--0-----------0--||--------4------|--4--------|-----------------||--7------------|--2--------|--0-----------2--||---------------|-----------|-----------------|
|-12p10-12-15-14-10-|-12--------12--||-------------------|-----12--------||-------------------|---------------||-------------------|---------------||-------------------|---------------||-------------------|---------------|
|
|--3-----3-----5----|--7---3--0-----||--3-----------3----|--0---0--------||--0----------------|--0---0--------||--------------4----|---------------||--3-----------5----|--7------------||-------------------|------0--------|
|-10--------|-7-8-10-----8p7-|--------------|------7----------|---0--------||-----12----|----------------|-10-8-7-------|-8-10-------10p8-|-7---4------||-----------|----------------|--------------|-----------------|------------||-----------|----------------|--------------|-----------------|------------||-----------|----------------|--------------|-----------------|------------||-----------|----------------|--------------|-----------------|------------|
|
|--2--------|----------------|--------------|-0-----------0---|------------||--3--------|-0-1--3---0-----|------3-------|-----------------|-4---0------||--2--------|-0-2--4-----0---|--2---------2-|-0--2-4---0------|------------||-----------|-0--------0-----|--0-------0---|-2--4-5----------|---4---4----||--2--------|----------------|--------------|-----------------|-2-------2--||-----------|-3------3-------|--2-----2-----|-0------0--------|------------|
|--------------|-------7----8-|-7---------7-|-6-7-9------|----7-9-10--9------||-5p4-5-8-7-10-|-8p7-8---10---|-----9-------|------------|-10------------10--||--------------|--------------|-------------|------------|-------------------||--------------|--------------|-------------|------------|-------------------||--------------|--------------|-------------|------------|-------------------||--------------|--------------|-------------|------------|-------------------|
|
|-------0----2-|-0---0-3--2---|-0-------0---|------------|------------0------||-1p0-1---3----|---3--------3-|-0---0-----0-|-2-0--------|----0-2--3---------||-0-------0----|-5--------2---|-1---1-------|-3---3------|--2---2-----2------||-2-------4----|-5--------0---|-----4-------|-4-------4--|--0---0-----0------||-0-------0----|-0------------|---2---2-----|-------4----|-------------------||--------------|--------------|-0-------0---|-0----------|--3-------------3--|
|------------7-|-8--------8-|-10---------10-|-12--------12-|-10--------||-7-8-10-------|----8-------|-----10--------|-----12-------|-----12----||--------------|------------|---------------|--------------|-----------||--------------|------------|---------------|--------------|-----------||--------------|------------|---------------|--------------|-----------||--------------|------------|---------------|--------------|-----------|
|
|--------------|-0--------0-|--2----------2-|--3---0-----0-|-----------||------------3-|-1--1-------|--3---3--------|--5---0--0----|--3---0----||-2--------2---|-0--0---0---|--2---2---2----|--4---0--0----|--2--------||---0----4-----|----2-------|------4--------|---------2----|-----------||------5-------|-0----0-----|--5-----5------|--------------|--2--------||-2------------|------------|---------------|--0-----------|-----------|
|-0-7p3-3p0-0h3-3h7-7p3-|-5-5h7h8-7--2h3-5-2-|-3-3p0---------0h3-3p0--||-----------------------|--------------------|-------5p0-0h5----------||-----------------------|--------------------|------------------------||-----------------------|--------------------|------------------------||-----------------------|--------------------|------------------------||-----------------------|--------------------|------------------------|
|
|---3p0---------0h3-3p0-|-2-0----------------|-0----------------------||-0-----5p0-0h5---------|-3-------3----------|-0-5p0---------0h5-5p0--||-0-------------0-------|-2-0------------0---|-0-----4p0-0h4-0--------||-----------------------|---------4----------|------------------------||-----------------------|-2----------2-------|------------------------||-0---------------------|--------------------|-0----------------------|
|-2-2h3p2p0------------|-----------------------|-0---------0-------5---||-----------3----------|-------5-----5---5-7---|---5h7-8-7---8-7-8---7-||--------------7p5-4-7-|-5-5h7---7-5---7-----7-|-----------------------||----------------------|-----------------------|-----------------------||----------------------|-----------------------|-----------------------||----------------------|-----------------------|-----------------------|
|
|----------------------|-----------------------|-------0-----0---0-2---||-3---------0----------|-----0-1p0---1-0-1-3-0-|-3-3-----3-1---3-----3-||---5------------------|-2-2-------2---0-------|-0-------------2-------||-4-2-------0----------|-2---------------------|---------------0-------||-2------------2-------|-0-------------2-------|-3---------------------||----------------------|-----------------------|-----------------------|
|---7h12-12p7-7p3-3p0-----|---7h8p7p5-7-----||-8-------------------5p0-|-0---------------||-------------------------|-----------------||-------------------------|-----------------||-------------------------|-----------------||-------------------------|-----------------|
|
|-0-3h=7--7p3-3p0---------|-----------------||-0-------0-------5p0-----|-----------------||-0-------0-----------4p0-|-4-4h5p4p2-4-----||-2-----------------------|-4---------------||-------------------------|-2------------2--||---------0---------------|-----------------|
|-3-----7-----3-----|---2-----7-----2-----|---3-----7-----3-----||---0-----5-------0-|-----0-------------0-|-----0-----5-------0-||-------------------|-----------7---------|---------------------||-2---2-5---5-2-----|---0---0-4---4-0-----|---2---2-5---5-2-----||-------------------|---------------------|---------------------||-------------------|---------------------|---------------------|
|
|-3p2-0-------0h2-3-|-3p2p0---------2h3-5-|-5p3p2-0-------3h5-7-||-------0h1-0-------|-------3-0h1-0-------|---------0h1-0-------||-------------------|---------------------|---------------------||-------------------|---------------------|---------------------||-------------------|---------------------|---------------------||-------------------|---------------------|---------------------|
|---2-------0---------|--------5-------------||-----0-----0-----3---|-----5-------5-7------||-------------2-0-----|-5------5------7------||---0---0---------4---|-5---5----------------||-----------3-----2---|-7-----------------10-||---------------------|-5-------------7------|
|
|-7p5p3-2-5p3p2-0-----|-----0---------2p0----||-----------------3-0-|-0h1-------3-1------3-||---------------------|----------------------||---------------------|----------------------||---------------------|----------------------||---------------------|----------------------|
|---------8-----------10-|-------<12>------12--------12-||------8-------8-10------|-<12>-------10----------------||--9------9------11------|-<12>-----------------12------||-10--------------0------|------------10---------9------||------------------------|------------------------------||--8------8--------------|-<12>-------------------------|
|
|--0h2-3-----2-0--5p3--2-|---3h5---7---8p7--5-8p=7p5--3-||------------------------|------------------------------||------------------------|------------------------------||------------------------|------------------------------||------------------------|------------------------------||------------------------|------------------------------|
|---10--------8------7--|----9----------|-------------|-5--------5---||--------12-------10-7--|---10----------|-^-8---------|-7--------7---||---11--------9---------|-^<12>---------|-^-9---------|-7--------7---||----9--------7------9--|-^<12>---------|-<12>--------|-5--------5---||-----------------------|---------------|-<12>--------|-----<7>------||-----------------------|---------------|-------------|--------------|
|
| ~~~~~~~ ~~~~|-7p=5p3--2-5p3p2--0----|---------------|-------------|--------------||--------------------3--|---------------|-------------|--------------||-----------------------|---------------|-----------0-|-2------------||-----------------------|---------------|-------4-----|--------------||-----------------------|-----------2-4-|---5---------|------------0-||-----------------------|--------3------|-------------|---0--0---3---|
|-5--------5---|---------5--------------7-|----0------8------0------10-----||-5--------5---|-------5---5----------7---|---------8---8---------8--------||-8--------8---|---5h7-------7----7h9-----|------11-------11---11------13--||-9--------9---|-9-------------10---------|-12-----------------------------||--------------|--------------------------|--------------------------------||----<19>------|--------------------------|--------------------------------|
|
|----------2-3-|-5-------3--------2-------|--0-----------------------------||--------------|--------------------------|-----------3---------1----------||-2------------|--------------------------|--------------------------------||--------------|--------------------------|---------------------0----------||-2------------|-0----------------2-------|--3-----------------------------||--------------|--------------------------|--------------------------------|
|----12-------------------------|-------14----------14----------14--------||-10----10-------------10-10-10-|----12----12----12----12----12----12-----||----------13-------13----------|-15----------15----------15----------15--||-------------------------------|-----------------------------------------||-------------<19>--------------|-----------------------------------------||-------------------------------|-----------------------------------------|
|
|--------------------0-----2----|-----------0-----------------------------||--0----------------------------|--0-----7--------7--------9--7-----9--7--||---------------1---------------|-----------------------------------------||--2----------------------------|--8-----------------8--9--------------8--||-------------------------------|--9--------------------------------------||-------------------------------|--0--------------------------------------|
|------7---9---10-9p7--------------------|----------9---10----12-12S14-||-10--------------------10--8p=7---------|-----10-----8----------------||--------------------------------9-7p6---|---9----7--------11----------||--------------------------------------9-|-7---------------------------||----------------------------------------|-----------------------------||----------------------------------------|-----------------------------|
|
|--2---------0---------------------------|-----------------------------||----3-----2------0---------2------------|-2--------2----------2-------||--2---2-4------------2------------------|-2--------0------------------||---------------------------0------------|-0--------0----------4-------||----------------------------------------|-----------------------------||--3------------------------3------------|-2-------------------2-------|
|-15---12----15-|-17---14----17-|-19---15---12---|-14-------||-13---10----13-|-15---12----15-|-17---13---10---|-12----0--||---------------|---------------|----------------|----------||---------------|---------------|----------------|----------||---------------|---------------|----------------|----------||---------------|---------------|----------------|----------|
|
|----0--3--5----|----0--3--5----|--7----3----0---|--2-------||--1----1--5----|--3----5--8--7-|--7-8--3----1---|----------||--0----4--5----|--2----5--5----|--7----4-5--0-2-|--4-------||---------------|--0------------|----------------|--4-------||--0-------0----|----------5----|--7----3----0---|--2-------||---------------|---------------|----------------|----------|
|---7p=5-3p0---3h=5-7p0-3h5---7p=0-|--5p=3-2p0---2h=3-5p0-2h3-5p2-||---0-------------------0----------|--0-------------------0-------||----------------------------------|------------------------------||----------------------------------|------------------------------||----------------------------------|------------------------------||----------------------------------|------------------------------|
|
|-<12>----------------------<12>---|------------------------------||------------<12>------------------|-----------<12>---------------||-<12>-----------------------------|-<7>--------------------------||----------------------------------|-<7>--------------------------||--<7>-----------------------------|------------------------------||----------------------------------|-<7>--------------------------|
|---3p=2-0-----0h=2-3p0-0h2---3p=0-|--2h=3-2p0---------------||----------5-----------------------|-------------3h=5-3p1-0--||---4-------------------4----------|--4----------2----0------||----------------------------------|----------------------4--||----------------------------------|-------------------------||----------------------------------|-------------------------|
|
|-<12>----------------------<12>---|-------------------------||------------<12>------------------|-----------<12>----------||-<12>-----------------------------|-<7>---------------------||----------------------------------|-<7>---------------------||--<7>-----------------------------|-------------------------||----------------------------------|-<7>---------------------|
|-------------0-----0-2---|-0-----0-0-2-3-0-2-3-5---||-1-----1-1-3---1-3-----3-|-----------------------7-||-------------------------|-------------------------||-------------------------|-----------------0-------||---------0-------2-------|---------3---------------||-------------------------|-------------------------|
|
|-------------------------|-------------------------||-------------------------|-------------------------||-------------0-----------|-----------2-4-0-2h4-2---||-------0-2-4---2-4h5-4p0-|-----2-4-5-------------4-||-0-2-3-------------------|-3-5---------------------||-------------------------|-------------------------|
|-----------5-7-8-7-5---7--|-7p5------------------||-8-----8-8-----------8----|-----8-7-5------------||--------------------------|-----------7----------||--------------------------|----------------------||-----------------7--------|----------------------||---------0----------------|----------------------|
|
|--------------------------|----------------------||--------------------------|-------------------0--||-------2-4-5-4-2-------0--|---------------0-2----||-2-4-5-----------5-4-2----|-5p4-2-0-----4--------||--------------------------|---------3-2----------||--------------------------|---------------0---2--|
|-19---17---19---15--------19---|-17---15---17---14--------17---||---------------------17--------|---------------------16--------||-------------------------------|-------------------------------||-------------------------------|-------------------------------||-------------------------------|-------------------------------||-------------------------------|-------------------------------|
|
|----7----7----7----7----7----7-|----7----7----7----7----7----7-||--8----7----8--------------8---|--7---------7--------------7---||-----------------9-------------|-------9---------8-------------||----------------------9--------|----------------------9--------||-------------------------------|-------------------------------||-------------------------------|-------------------------------|
|-15---14---15-------------15---|-14---12---14---11---------||----------------17---14--------|---------------------<12>--||-------------------------------|---------------------------||-------------------------------|---------------------------||-------------------------------|---------------------------||-------------------------------|---------------------------|
|
|----7----7----7----7----7----7-|----7----7----7--------7---||-------------------------------|-------------------7-------||--9----8----9--------------9---|--8---------8--------------||----------------11----8--------|------11---------9---------||-------------------------------|---------------------------||-------------------------------|---------------------------|
|-8p7-5---------------------------|-12p10-8--------------------------------||-------8p7-5---------------------|---------12p10-8------------------------||-------------7p5-4---------------|-----------------11p9-7-----------------||-------------------7p5-4---------|------------------------10p9-7----------||-------------------------7p5-3S2-|-------------------------------10p9-7S5-||---------------------------------|----------------------------------------|
|
|-8-----------5-----------5-------|--3---------------0-------------2-------||-7-----------5-----------3-------|--1---------------0-------------0-------||-------9-----------5-----------4-|----------4--------------2------------2-||-7-----------5-----------4-------|--2-----------------------------0-------||---------------------------------|------------------3---------------------||---------------------------------|----------------------------------------|
|-15-14-12----------12-10-8-----------------------||----------15-13-12---------12-10-8---------------||-----------------------------------11-9-7--------||------------------------------------------10-9-7-||-------------------------------------------------||-------------------------------------------------|
|
|--3-----------------5---------------7------------||--0--------1--------3-------5-------5------7-----||-------------------------------------------------||--2-----------------4---------------5------------||-------------------------------------------------||-------------------------------------------------|
|----------------------------------------||------------------------------------0---||----------------------------------------||-9h10-12------10p9-7h9-10------9p7------||----------------------------------------||----------------------------------------|
|
|-7--------------------------------------||-7--------------------------------------||-----------4-------5--------------------||-7--------------------------7-----------||----------------------------------------||-----------------------------------<7>--|
|-----------------|-0-0--0----0-0-0-|-^2-------------------------||-3-3--3----3-3-3-|-3-3--3----3-3-3-|-^3-0---3---7---10----14----||-2-2--2----2-2-2-|-2-2--2----2-2-2-|-^2---0---4---7----11----14-||-0-0--0----0-0-0-|-----------------|-^2-------------------------||-----------------|-----------------|-^2-------------------------||-3-----------3---|-2-----------2---|-^0-------------------------|
|
|-----------------|-----------------|--0-------------------------||-2-2-----2---2-2-|-2-2-----2---2-2-|--0-----0---3----7----10----||-4-4-----4---4-4-|-4-4-----4---4-4-|--0-0-----0---4-----7----11-||-4-4-----4---4-4-|-0-0-(0)-0---0-0-|------2---------------------||-----------------|-0----0----0-----|----------------------------||-3----3----3-----|-----------------|--0-------------------------|
|--------------14-------------------------||------16--------------16------------16---||-----------------------------------------||-----------------------------------------||-----------------------------------------||-----------------------------------------|
|
|-<12>------------<12>---------<12>-------||---------<12>------------<12>------<12>--||-----------------------------------------||-----------------------------------------||-----------------------------------------||-----------------------------------------|
|-12p8-8-8-8h10-7h8---|-8p5-5-5-5h7-3h5-2-||-------------------8-|-------------------||---------------------|-------------------||---------------------|-------------------||---------------------|-------------------||---------------------|-------------------|
|
|--5------------------|-------------------||--------8------7---6-|-5-----------------||---------------------|-------8-----7---5-||---------------------|-------------------||---------------------|-------------------||---------------------|-------------------|
|-4p0-0-----5---4---7-|-6-----0---7--6------|-7p0--------------------0--||-------0-0-------5---|---7-7--------7------|-----7-8-10p0------7h=8----||---------------------|---------6-----------|--------------7-9----------||---------------------|---------------------|---------------------------||---------------------|---------------------|---------------------------||---------------------|---------------------|---------------------------|
|
|---------------------|---------------------|---------------------------||---------------------|---------------------|---0--------0---3----p0----||-4-----------5-4-----|-6-------0-------0-6-|-----6--------6---------6--||---------7-----------|---------------------|-5--------5----------------||---------------------|---------------------|---------------------------||---------------------|---------------------|---------------------------|
|-5p0---------------------|-3p0-------0-3h5-2-----5-||-------5-7p0---0---------|-----1p0-1---------3-----||-----7------------6h=7-0-|---------------------4---||-------------7-----------|-------------------------||-------------------------|-------------------------||-------------------------|-------------------------|
|
|-------------------------|-------------0-------2---||---0-------0---3----p0---|-1-----------1---3-------||-----6-------6---------2-|-0---2p0-2-------0-------||-4-------4---------------|-2-------2---------------||-------------------------|---------0-------2-------||-------------------------|-------------------------|
|-7p3---------7h8-5-----8---|-7-5-0-----------10-12-14-15-17-||-----5p3-5-8-------7-------|-------7-8-10-12----------------||---------------------7-----|--------------------------------||---------------------------|--------------------------------||---------------------------|--------------------------------||---------------------------|--------------------------------|
|
|-3-----------3-5-2-----5---|-3-0-----0--2--3--5--7----------||---5-------5-------3-------|-----0-3-0--------------8--7----||-5---5p4-5-------2---2-----|-0-----2-0--------------------5-||---------5-------0---------|-2------------------------------||-3-------0-----------------|---------------------7----------||---------------------------|---------0----------------------|
|-19------------------|-12----------------------12---||---------------------|-----------12-----------------||---------------------|------12--------9---11---12---||---------------------|------------------------------||---------------------|------------------------------||---------------------|------------------------------|
|
|----------0-------0--|---------0--------0---------0-||--0-------------1-0--|-------0--------0---------0---||----4-5-7-5-4-2------|----0---------2--------4------||---------------------|------------------------------||----------0-------2--|------------------------------||--7------------------|--0---------2--------3--------|
|-10-------7---------------|-12----------------------12----||------7-------5-----------|-----------12------------------||------------------7-------|------12--------9---11---12----||--------------------------|-------------------------------||--------------------------|-------------------------------||--------------------------|-------------------------------|
|
|--------0-------3-2-0-----|---------3--------2---------0--||------0-------0-------3-1-|--0----0--------0---------0----||----5-------2-------------|----2---------2--------0-------||--------------------------|------------0--------2---------||--0-------2---------------|--3----------------------------||--------------------------|-------------------------------|
|-10-------7---------------|-8p==7----8----12---10-------||------7-------5-----------|-----------------------------||------------------7-------|-9------------------11-------||--------------------------|-----------------------------||--------------------------|-----------------------------||--------------------------|-----------------------------|
|
|--------5-----0-7-5-3-2-0-|-3--------3----------5-------||------3-----0-------------|-3---3----3-----3----5---5---||----2-----0---------------|---5---5-----5----5----7---7-||--4-----------------------|-7-------------------9-------||--------------------------|-----------------------------||--------------------------|-----------------------------|
|-12p==10---12---15---14----------|-10h12-8h10-7h8-5h7-3h5-2p0-||---------------------------------|----------------------------||-12------------------14----------|----------------------------||---------------------------------|----------------------------||---------------------------------|----------------------------||---------------------------------|----------------------------|
|
|--7---------7---------8----------|----------------------------||--7----7----7----7----8----8-----|--8----7----5---3---1---0---||----9----9----9----9----11---11--|--9----7----5---4---2---0---||-10--------10--------12----------|----------------------------||---------------------------------|----------------------------||---------------------------------|--0-------------------------|
|-------------------------|-0----0-----------0---0----||-3---------------0-------|-0----0---0---0---0---0----||---------5---------------|-4----2---0-------0---5----||-------------------------|-5----4---2---4---2---5----||-------------------------|--------------5---3---0----||-------------------------|---------------------------|
|
|-------------------------|----0---0-----------0---0--||-------3-------1-------0-|----0---0---0---0---0---0--||-----2-------0-------4---|--------------------0---5--||---2-------0-------4-----|--------7---5---4---2---5--||-2-------0-------2-------|---10---9---7---5---3---0--||-------------------------|-0-------------------------|
|-------------------------<19>-||--3----3---0---0---0----------||--2----0---2---0--------------||--4----4---4---2---4----------||--2----3---5-------2----------||------------------------------|
|
|------------------------------||-----3---3-------0---------0--||-----2---0---2---0-----4------||-----4---4---4-------4--------||-----2---3---5---3-2----------||------------------------------|
|-0----0-----------0---0---|-------------------------<19>--||-0----0---0---0---0---0---|--3----3---0---0---0-----------||-4----2---0-------0---5---|--2----0---2---0---------------||-5----4---2---4---2---5---|--4----4---4---2---4-----------||--------------5---3---0---|--2----3---5-------2-----------||--------------------------|-------------------------------|
|
|----0---0-----------0---0-|-------------------------------||----0---0---0---0---0---0-|-----3---3-------0---------0---||--------------------0---5-|-----2---0---2---0-----4-------||--------7---5---4---2---5-|-----4---4---4-------4---------||---10---9---7---5---3---0-|-----2---3---5---3-2-----------||-0------------------------|-------------------------------|
|-------------------------|--------------------------8----||---------5---5---7---7---|------------8---8---10---10----||-5---5---5---5---7---7---|--9-----9---9---9---11----9----||-7---7---5---5---7---7---|-10----10---9---9---12---------||-7---7-------------------|-10----10----------------------||-5-------5-------7-------|--8---------8-------10---------|
|
|---------------3---3-----|----------2---2---7----7----10-||---0---3---3---5---5---3-|-----3----3---3---8----8----10-||---0---4---4---4---4---4-|-----4----2---2---7----9----11-||---0---4---4-----------4-|-----4-------------------------||-------------------------|-------------------------------||-------------------------|-------------------------------|
|-12p7----------7------------------------11-||------8----------8-----------------7-10----||--------9----------9-------------8---------||----------9----------9--------10-----------||------------10---------10-7-9--------------||-------------------------------------------|
|
|--7---0--------3p0--------0-2p=0---------2-||----8---0----------0----0--------0----0----||----------0----------0-------------2-------||-------------2-2---------------------------||---------------------3-------------1-------||--0-------------------------0--------------|
|-12p7----------7------------------------11-||------8----------8-----------------7-10----||--------9----------9-------------8---------||----------9----------9--------10-----------||------------10---------10-7-9--------------||-------------------------------------------|
|
|--7---0--------3p0--------0-2p=0---------2-||----8---0----------0----0--------0----0----||----------0----------0-------------2-------||-------------2-2---------------------------||---------------------3-------------1-------||--0-------------------------0--------------|
|-12-------------12-------------12----12----12------|-----------|----------|||----12-------12----12-------12----12----12----12---|-----10h12-|----------|||-------9---9----------9---9------------------------|------9----|----------|||---------9--------------9--------------------------|-----------|----------|||---------------------------------------------------|-----------|----------|||--0--------------0--------------0-----0-----0------|-----------|----------||
|
|--0--------------0--------------0-----0-----0------|-----------|----------|||-----0--------0-----0--------0-----0-----0-----0---|------1p=0-|----------|||-------4---4----------4---4------------------------|-----------|----------|||--2------2-------2------2-------2-----2-----2------|------2----|----------|||---------------------------------------------------|-----------|----------|||---------------------------------------------------|-----------|----------||
Tap to rate this tab
 
# A B C D E F G H I J K L M N O P Q R S T U V W X Y Z