Andy Mckee - All Laid Back And Stuff tab

Tuning (low to high):CGDGAD

I can't take 100% credit for this tab, I merely refined it in places.

Let me know if there is anything wrong in the comments, or send me a message. I'll try 
fix it ASAP.

D||--4h5p4---0---------------------------|A||*-------5-------5p0-------------------|G||--------------------4/2p0h2-----2p0---|D||--------------------------------------|G||*-0---------x-0-------------x---------|C||------------x-------0-------x-0-------|
|--5p4---0---5h7p0-4---5p4/2p0---------| |------5-------------------------------| |--------------------------------------| |--------------------------------------| |--0-------x---------------------------| |----------x-------0-------------------|
|--5p4---0-----------------------------| |------5-------5p0---------------------| |------------------4/2p0h2-----2p0-----| |--------------------------------------| |--0-------x-0-------------x-----------| |----------x-------0-------x-0---------|
|--5p4---0---7h9p0---------------------| |------5-----------7----9p7/5p0--------| |--------------------------------------| |--------------------------------------| |--0-------x---------------------------| |----------x-------0-------------------|
|--4p0---0-----5p0--------------NH-----| |------5--------------------NH---5-NH--| |-----------------------NH---5------5--| |-------------------NH---5-------------| |----------x---------5-----------------| |--4-------x-4-----0-------------------|
|--4p0---0-----------------------------| |------5-------5p0--------------0-----*| |----------------------------0---------| |-----------------------0h4------------| |----------x--------------------------*| |--4-------x-4-----0h2-----------------|
|------7-----4----9----7------12-------| |----5-----2----7----5-----10----------| |--------------------------------------| |--------------------------------------| |--------------------------------------| |--0-------0------0------0-------------|
|---0-----------------0----------------| |-----12--------12---------12----------| |--------11--------11------------11----| |--------------------------------------| |--11-------------------11-------------| |------------11---------------------11-|
|-------0--------------------0---------| |--10--------10---9--------------0-----| |-----9---------9-------9-----------9--| |--------------------------7-----------| |---9--------------------------7-------| |---------9----------7-----------------|
|------7-----4--------------4---|------7-----4--------------0----| |----5-----2------------0-------|----5-----2------------0-------0| |-------------------0h2--------0|-------------------0h2----------| |---------------0h4-------------|---------------0h4-----------0--| |-------------------------------|--------------------------------| |--0-------0------0-------0-----|--0-------0------0-------0------|
|------7-----4--------------0----|------7-----4--------------0----| |----5-----2------------0-------0|----5-----2------------0-------0| |-------------------0h2----------|-------------------0h2----------| |---------------0h4-----------0--|---------------0h4-----------4--| |--------------------------------|--------------------------------| |--0-------0--------------0------|--0-------0------0-------0------|
|--4h5p4---0---------------------------| |--------5-------5p0-------------------| |--------------------4/2p0h2-----2p0---| |--------------------------------------| |--0---------x-0-------------x---------| |------------x-------0-------x-0-------|
|--5p4---0---5h7p0-4---5p4/2p0---------| |------5-------------------------------| |--------------------------------------| |--------------------------------------| |--0-------x---------------------------| |----------x-------0-------------------|
|--5p4---0-----------------------------| |------5-------5p0---------------------| |------------------4/2p0h2-----2p0-----| |--------------------------------------| |--0-------x-0-------------x-----------| |----------x-------0-------x-0---------|
|--5p4---0---7h9p0---------------------| |------5-----------7----9p7/5p0--------| |--------------------------------------| |--------------------------------------| |--0-------x---------------------------| |----------x-------0-------------------|
|--4p0---0-----5p0--------------NH-----| |------5--------------------NH---5-NH--| |-----------------------NH---5------5--| |-------------------NH---5-------------| |----------x---------5-----------------| |--4-------x-4-----0-------------------|
NH |--4p0---0-----5p0--------------NH---5-| |------5--------------------NH---5-----| |-----------------------NH---5---------| |-------------------NH---5-------------| |----------x---------5-----------------| |--4-------x-4-----0-------------------|
|--4p0---0-----5p0--------------NH-----| |------5--------------------NH---5-NH--| |-----------------------NH---5------5--| |-------------------NH---5-------------| |----------x---------5-----------------| |--4-------x-4-----0-------------------|
|--4p0---0-----------------------------| |------5-------5p0--------------0------| |----------------------------0---------| |-----------------------0h4------------| |----------x---------------------------| |--4-------x-4-----0h2-----------------|
|------7-----4----9----7------12-------| |----5-----2----7----5-----10----------| |--------------------------------------| |--------------------------------------| |--------------------------------------| |--0-------0------0------0-------------|
|---0-----------------0----------------| |-----12--------12---------12----------| |--------11--------11------------11-11-| |--------------------------------------| |--11-------------------11-------------| |------------11---------------------11-|
|-------0--------------------0---------| |--10--------10---9--------------0-----| |-----9---------9-------9-----------9--| |--------------------------7-----------| |---9--------------------------7-------| |---------9----------7-----------------|
|------7-----4--------------0----|------7-----4--------------0----| |----5-----2------------0-------0|----5-----2------------0-------0| |-------------------0h2----------|-------------------0h2----------| |---------------0h4-----------4--|---------------0h4-----------4--| |--------------------------------|--------------------------------| |--0-------0------------0--------|--0-------0------0-------0------|
|------7-----4--------------0----|------7-----4--------------0----| |----5-----2-------------0------0|----5-----2------------0-------0| |-------------------0h2----------|-------------------0h2----------| |---------------0h4-----------4--|---------------0h4-----------4--| |--------------------------------|--------------------------------| |--0-------0------------0--------|--0-------0------0-------0------|
|--5p4---0-----------------------------| |------5-------5p0---------------------| |------------------4/2p0h2-----2p0-----| |--------------------------------------| |--0-------x-0-------------x-----------| |----------x-------0-------x-0-0-------|
|--5p4---0---5h7p0-4---5p4/2p0---------| |------5-------------------------------| |--------------------------------------| |--------------------------------------| |--0-------x---------------------------| |----------x-------0-------------------|
|--5p4---0-----------------------------| |------5-------5p0---------------------| |------------------4/2p0h2-----2p0-----| |--------------------------------------| |--0-------x-0-------------x-----------| |----------x-------0-------x-0---------|
|--5p4---0---7h9p0---------------------| |------5-----------7----9p7/5p0--------| |--------------------------------------| |--------------------------------------| |--0-------x---------------------------| |----------x-------0-------------------|
|--4p0---0-----5p0--------------NH-----| |------5--------------------NH---5-NH--| |-----------------------NH---5------5--| |-------------------NH---5-------------| |----------x---------5-----------------| |--4-------x-4-----0-------------------|
NH |--4p0---0-----5p0--------------NH---5-| |------5--------------------NH---5-----| |-----------------------NH---5---------| |-------------------NH---5-------------| |----------x---------5-----------------| |--4-------x-4-----0-------------------|
|--4p0---0-----5p0--------------NH-----| |------5--------------------NH---5-NH--| |-----------------------NH---5------5--| |-------------------NH---5-------------| |----------x---------5-----------------| |--4-------x-4-----0-------------------|
|--4p0---0-----------------------------|--4--|| |------5-------5p0--------------0------|-----|| |----------------------------0---------|--0--|| |-----------------------0h4------------|-----|| |----------x---------------------------|--0--|| |--4-------x-4-----0h2-----------------|-----||
Tap to rate this tab
 
# A B C D E F G H I J K L M N O P Q R S T U V W X Y Z