Ane Brun - Raise My Head tab

DADF#AD (open Dmaj)

This song has so many notes, it would be a drag to write everything out. Therefore I've 
out how to pluck the first chords, which is more or less the way the whole song is 
You can apply this pattern to the other chords below. The intro is played as the verse.


VERSE

I will raise my...

---7-----------------7---7---------------7---7------------------7---7---------------7-----|-------5----------------------5--------------------5----------------------5---------------|-----------6----------------------6---------------------6---------------------6-----------|---------------0----------------------0----------------------0-------------------0--------|------------------------------------------------------------------------------------------|---0------------------------------------------0-------------------------------------------|
head now and
------5-----------------|------0-----------------|------5-----------------|------5-----------------|------x-----------------|------5-----------------|
travel
------0-----------------|------0-----------------|------1-----------------|------0-----------------|------1-----------------|------x-----------------|
further
------0-----------------|------0-----------------|------x-----------------|------0-----------------|------x-----------------|------3-----------------|
on this
------5-----------------|------0-----------------|------5-----------------|------5-----------------|------x-----------------|------5-----------------|
time
------7-----------------|------7-----------------|------7-(8)-------------|------7-----------------|------0-----------------|------x-----------------|
CHORUS I've got my best shoes on I'm ready for it
------12----------------|------10----------------|------11----------------|------0-----------------|------0-----------------|------0-----------------|
all
------12----------------|------0-----------------|------10----------------|------11----------------|------0-----------------|------x-----------------|
------11----------------|------0-----------------|------10----------------|------11----------------|------0-----------------|------x-----------------|
bring in your best crew come on I'm ready for it
------12-----------------|------10-----------------|------11-----------------|------0------------------|------0------------------|------0------------------|
all
------12-----------------|------0------------------|------10-----------------|------11-----------------|------0------------------|------x------------------|
------11-----------------|------0------------------|------10-----------------|------11-----------------|------0------------------|------x------------------|
------9-----------------|------0-----------------|------8-----------------|------9-----------------|------0-----------------|------x-----------------|
------7-----------------|------7-----------------|------7-----------------|------7-----------------|------0-----------------|------x-----------------|
ah...
------5-----------------|------5-----------------|------5--(6)------------|------5-----------------|------5-----------------|------5-----------------|
ah....------4-----------------|------4-----------------|------3-----------------|------4-----------------|------x-----------------|------0-----------------|
ah...
------5-----------------|------5-----------------|------5--(6)------------|------5-----------------|------5-----------------|------5-----------------|
ah....------4-----------------|------4-----------------|------3-----------------|------4-----------------|------x-----------------|------0-----------------|
------2-----------------|------2-----------------|------2-----------------|------2-----------------|------x-----------------|------2-----------------|
------0-----------------|------0-----------------|------1-----------------|------0-----------------|------1-----------------|------x-----------------|
------0-----------------|------0-----------------|------x-----------------|------0-----------------|------x-----------------|------3-----------------|
------5-----------------|------0-----------------|------5-----------------|------5-----------------|------x-----------------|------5-----------------|
------7-----------------|------7-----------------|------7-(8)-------------|------7-----------------|------0-----------------|------x-----------------|
tabbed by Frouke www.froukevanes.nl
Tap to rate this tab
 
# A B C D E F G H I J K L M N O P Q R S T U V W X Y Z