Ane Brun - Love And Misery tab

Artist: Ane Brun
Song: Love and Misery
Tabed by: Jon Munter 


This is my first tab, I really like this song and wanted
to learn it, so I googled for a tab. I couldn't find one,
so I made my own.

I'm not sure about the rhythm guitar(no2) in the solo, 
it's very hard to make out, but otherwise I think i'ts pretty 
accurate.

This song isn't that hard, I learned it as I tabed it.
Just remember to listen to the song to get a feel for it.

Since this is my first tab, there could be mistakes here and there.
If you find any, or would like to give me some feedback, e-mail me 
at jon_munter@hotmail.com.

OK, here it goes.

Tuning: Standard

h=hammer on

Intro *1

|| | | | | | | | | | | | ||----0---0---|----0---0---|----3---3---|----2---2---||----1---1---|----3---3---|----0---0---|----0---0---||--0---0---0-|--0---0---0-|--0---0---0-|--0---0---0-||------------|------------|2-----------|0-----------||3-----------|0-----------|------------|------------||------------|------------|------------|------------|
|| | | | | | | | | | | | ||----0---0---|----0---0---|----3---3---|----2-------||----1---1---|----3---3---|----0---0---|----0-------||--0---0---0-|--0---0---0-|--0---0---0-|--0---------||------------|------------|2-----------|0-----------||3-----------|0-----------|------------|------------||------------|------------|------------|------------|
Verse no1 *2
|| | | | | | | | | | | | ||----0---0---|----0---0---|----3---3---|----2---2h3-||----1---1---|----3---3---|----0---0---|----0---0---||--0---0---0-|--0---0---0-|--0---0---0-|--0---0-----||------------|------------|2-----------|0-----------||3-----------|0-----------|------------|------------||------------|------------|------------|------------| The best in me.
|| | | | | | | | | | | | ||----0---0---|----0---0---|----3---3---|----2---2h3-||----1---1---|----3---3---|----0---0---|----0---0---||--0---0---0-|--0---0---0-|--0---0---0-|--0---0-----||------------|------------|2-----------|0-----------||3-----------|0-----------|------------|------------||------------|------------|------------|------------| Look at us and try to see
Verse no2(a variation of no1) *1
|| | | | | | | | | | | | ||----0---0---|----0---0---|----3---3---|----2---2h3-||----3---1---|----1---3---|----0---0---|----0---0---||--0---0---0-|--0---0---0-|--0---0---0-|--0---0-----||------------|------------|2-----------|0-----------||3-----------|0-----------|------------|------------||------------|------------|------------|------------|
|| | | | | | | | | | | | ||----0---0---|----0---0---|----3---3---|----2-------||----3---1---|----1---3---|----0---0---|----0-------||--0---0---0-|--0---0---0-|--0---0---0-|--0---------||------------|------------|2-----------|0-----------||3-----------|0-----------|------------|------------||------------|------------|------------|------------|
Verse no1 *2
|| | | | | | | | | | | | ||----0---0---|----0---0---|----3---3---|----2---2h3-||----1---1---|----3---3---|----0---0---|----0---0---||--0---0---0-|--0---0---0-|--0---0---0-|--0---0-----||------------|------------|2-----------|0-----------||3-----------|0-----------|------------|------------||------------|------------|------------|------------|
|| | | | | | | | | | | | ||----0---0---|----0---0---|----3---3---|----2---2h3-||----1---1---|----3---3---|----0---0---|----0---0---||--0---0---0-|--0---0---0-|--0---0---0-|--0---0-----||------------|------------|2-----------|0-----------||3-----------|0-----------|------------|------------||------------|------------|------------|------------|
|| | | | | | ||----3-------|----2-------||----0-------|----0-------||--0---------|--0---------||2-----------|0-----------||------------|------------||------------|------------| <--play this the last time(just before the solo).
Solo Guitar 1
|| | | | | | | | | | | | ||7-------10--|8---7-------|----7-------|------------||------------|--------8---|--------8---|7-----------||------------|------------|9-----------|----9---7---||------------|------------|------------|------------||------------|------------|------------|------------||------------|------------|------------|------------|
|| | | | | | | | | | | | ||7-------10--|8---7-------|----7-------|------------||------------|--------8---|--------8---|7---8---9---||------------|------------|9-----------|------------||------------|------------|------------|------------||------------|------------|------------|------------||------------|------------|------------|------------|
Guitar 2
|| | | | | | | | | | | | ||----0---0---|----2---2---|----0---0---|----2---2---||----1---1---|----0---0---|----1---1---|----0---0---||--0---0---0-|--0---0---0-|--0-------0-|--0---0-----||------------|0-----------|------------|0-----------||3-----------|------------|3-----3-----|------------||------------|------------|------------|----------3-|
|| | | | | | | | | | | | ||----0---0---|----2---2---|----0---0---|2---3---5---||----1---1---|----0---0---|----1---1---|0---0---0---|I'm not quite sure|--0---0---0-|--0---0---0-|--0---0-----|------------|about this.I'ts |------------|0-----------|----------0-|--0---0-----|so F**ing hard |3-----------|------------|3-----3-----|------------|to make out the|------------|------------|------------|------------|background-guitar.
Verse no1 *2 Solo *2 (With 3 guitars. Two solo and one rhythm.) Verse no1 *2 Solo *4 (With 3 guitars. Two solo and one rhythm.) FIN That's it!
Tap to rate this tab
 
# A B C D E F G H I J K L M N O P Q R S T U V W X Y Z