Angeles Del Infierno - Esclavos De La Noche tab

esclavos de la noche


angeles del infierno


TRANSCRIBED BY RUDY GUZMAN


guzman_84@hotmail.com


e:-5-8p7p5-8p7p5-8p7p5-8p7p5-8p7p5-8p7p5--4-7p6p4-7p6p4-7p6p4-7p6p4-7p6p4-7p6p4-|B:------------------------------------------------------------------------------|G:------------------------------------------------------------------------------|D:------------------------------------------------------------------------------|A:------------------------------------------------------------------------------|E:------------------------------------------------------------------------------|
e:------------------------------------------------------------------------------|B:-5-8p7p5-8p7p5-8p7p5-8p7p5-8p7p5-8p7p5--4-7p6p4-7p6p4-7p6p4-7p6p4-7p6p4-7p6p4-|G:------------------------------------------------------------------------------|D:------------------------------------------------------------------------------|A:------------------------------------------------------------------------------|E:------------------------------------------------------------------------------|
e:----------------------|B:----------------------|G:----------------------|D:-9-----------------9--|A:-7----9--2--5--4---7--|E:------7--0--3--2------|
:------------------------|:------------------------|:------------------------|:------------------------|:-7-x-7-x-7-x-7-x--10-10-|:-5-x-5-x-5-x-5-x--8--8--|
versee:----------------|B:----------------|G:----------------|D:----------------|A:-7--------10-10-|E:-5--------8--8--|
:------------------------|:------------------------|:------------------------|:------------------------|:-7-x-7-x-7-x-7-x--10-10-|:-5-x-5-x-5-x-5-x--8--8--|
e:----------------|B:----------------|G:----------------|D:----------------|A:-7--------10-10-|E:-5--------8--8--|
:------------------------|:------------------------|:------------------------|:------------------------|:-7-x-7-x-7-x-7-x--10-10-|:-5-x-5-x-5-x-5-x--8--8--|
e:----------------|B:----------------|G:----------------|D:----------------|A:-7--------10-10-|E:-5--------8--8--|
:------------------------|:------------------------|:------------------------|:------------------------|:-7-x-7-x-7-x-7-x--10-10-|:-5-x-5-x-5-x-5-x--8--8--|
e:----------------|B:----------------|G:----------------|D:----------------|A:-7--------10-10-|E:-5--------8--8--|
:------------------------|:------------------------|:------------------------|:------------------------|:-7-x-7-x-7-x-7-x--10-10-|:-5-x-5-x-5-x-5-x--8--8--|
e:----------------------|B:----------------------|G:----------------------|D:----------------------|A:---5p3---5-3---3------|E:-5-----5-----5---3~~~-|
:----------|:----------|:----------|:-7--------|:-5--3h5p3-|:----------|
e:-----------------|B:-----------------|G:-----------------|D:-----------------|A:-7---7--10-10--5-|E:-5---5--8--8---3-|
:----------|:----------|:----------|:-7--------|:-5--3h5p3-|:----------|
e:-----------------|B:-----------------|G:-----------------|D:-----------------|A:-7---7--10-10--5-|E:-5---5--8--8---3-|
e:----------------|B:----------------|G:----------------|D:----------------|A:-7--------10-10-|E:-5--------8--8--|
:------------------------|:------------------------|:------------------------|:------------------------|:-7-x-7-x-7-x-7-x--10-10-|:-5-x-5-x-5-x-5-x--8--8--|
e:----------------|B:----------------|G:----------------|D:----------------|A:-7--------10-10-|E:-5--------8--8--|
:------------------------|:------------------------|:------------------------|:------------------------|:-7-x-7-x-7-x-7-x--10-10-|:-5-x-5-x-5-x-5-x--8--8--|
e:----------------|B:----------------|G:----------------|D:----------------|A:-7--------10-10-|E:-5--------8--8--|
:------------------------|:------------------------|:------------------------|:------------------------|:-7-x-7-x-7-x-7-x--10-10-|:-5-x-5-x-5-x-5-x--8--8--|
e:----------------|B:----------------|G:----------------|D:----------------|A:-7--------10-10-|E:-5--------8--8--|
:------------------------|:------------------------|:------------------------|:------------------------|:-7-x-7-x-7-x-7-x--10-10-|:-5-x-5-x-5-x-5-x--8--8--|
e:----------------|B:----------------|G:----------------|D:----------------|A:-7--------10-10-|E:-5--------8--8--|
:------------------------|:------------------------|:------------------------|:------------------------|:-7-x-7-x-7-x-7-x--10-10-|:-5-x-5-x-5-x-5-x--8--8--|
e:----------------------|B:----------------------|G:----------------------|D:----------------------|A:---5p3---5-3---3------|E:-5-----5-----5---3~~~-|
:----------|:----------|:----------|:-7--------|:-5--3h5p3-|:----------|
e:-----------------|B:-----------------|G:-----------------|D:-----------------|A:-7---7--10-10--5-|E:-5---5--8--8---3-|
:----------|:----------|:----------|:-7--------|:-5--3h5p3-|:----------|
e:-----------------|B:-----------------|G:-----------------|D:-----------------|A:-7---7--10-10--5-|E:-5---5--8--8---3-|
pick slide:---------------------------------------------------|:---------------------------------------------------|:---------------------------------------------------|:---------------------------------------------------|:---3-----3-----3-----3------5---x\-----------/14\--|:-5---5-3---5-3---5-3---5-3--3---x\-----------------|
soloe:----------------------------------------------------------------------------------------|B:----------------------------------------------------------------------------------------|G:-------5---5---5-7b--7bf--7ahb-7ahb-7ahb--7b--7ah-7ah-7ah-7ah-7ah-7ah-7ah--7b--7--5h7p5-|D:---5-7---7---7--------------------------------------------------------------------------|A:-7--------------------------------------------------------------------------------------|E:----------------------------------------------------------------------------------------|
:------------------------------------------------------------------------------------------|:------------------------------------------------------------------------------------------|:---5------------5---5-----------5---5-----------------------------------------------------|:-7---7-5-7--5h7---7---7~~~--5h7---7---7--5h7p5h7p5h7p5---5--------------------------------|:-------------------------------------------------------7---7-5h7p5---5--------------------|:-------------------------------------------------------------------8---8-5h7p5-3h5p3--3-6-|
e:----------------------------------------------------------------------------------------|B:----------------------------------------------------------------------------------------|G:---------3b--2b--0/15--/15-/15\--3/15--7ah--5h7p5h7p5h7p5h7p5h7p5h7p5-5h7p5---5---------|D:-----3-5--------------------------------------------------------------------7---7p5h7p5-|A:-3-5------------------------------------------------------------------------------------|E:----------------------------------------------------------------------------------------|
:------------------------------------------|:------------------------------------------|:--------3/15\--3/15--3/15\3/15\--7ah~~~~~-|:---5-7------------------------------------|:-7----------------------------------------|:------------------------------------------|
e:----------------------|B:----------------------|G:----------------------|D:----------------------|A:---5p3---5-3---3------|E:-5-----5-----5---3~~~-|
:----------|:----------|:----------|:-7--------|:-5--3h5p3-|:----------|
e:-----------------|B:-----------------|G:-----------------|D:-----------------|A:-7---7--10-10--5-|E:-5---5--8--8---3-|
8 times:-------------------------------------------|:-------------------------------------------|:-------------------------------------------|:-------------------------------------------|:-7-x-7-x-7-x-7-x--10-10----7---------10-10-|:-5-x-5-x-5-x-5-x--8--8-----5---------8--8--|
e:----------------------|B:----------------------|G:----------------------|D:----------------------|A:---5p3---5-3---3------|E:-5-----5-----5---3~~~-|
:----------|:----------|:----------|:-7--------|:-5--3h5p3-|:----------|
e:-----------------|B:-----------------|G:-----------------|D:-----------------|A:-7---7--10-10--5-|E:-5---5--8--8---3-|
:----------|:----------|:----------|:-7--------|:-5--3h5p3-|:----------|
e:-----------------|B:-----------------|G:-----------------|D:-----------------|A:-7---7--10-10--5-|E:-5---5--8--8---3-|
3 times:-------------------------------------------|:-------------------------------------------|:-------------------------------------------|:-------------------------------------------|:-7-x-7-x-7-x-7-x--10-10----7---------10-10-|:-5-x-5-x-5-x-5-x--8--8-----5---------8--8--|
e:---|B:---|G:---|D:---|A:-7-|E:-5-|
e:-5-8p7p5-8p7p5-8p7p5-8p7p5-8p7p5-8p7p5--------------------------|B:----------------------------------------8-7-5h7p5---------------|G:--------------------------------------------------7-5--7b~~~----|D:----------------------------------------------------------------|A:--------------------------------------------------------------7-|E:--------------------------------------------------------------5-|
Tap to rate this tab
 
# A B C D E F G H I J K L M N O P Q R S T U V W X Y Z