Angels And Airwaves - The Moon Atomic Fragments And Fictions tab version 4

The Moon-Atomic (...Fragments and Fictions) by Angels and Airwaves

---7-6---------------|---------7----7---5--|-4-----4---4----4----|---------------------| x12---------------------|---------------------|
---------------------------------- ---|-------7-------7--------7-------7- ---|-8-------9-------11-------9------- -4-|-9-------9--------9-------9------- x4 -4-|-6-------7--------7-------7------- -2-|---------------------------------- ---|
-------------|-4-5-4---7---|-------4-----|-------------| x2-------------|-------------|
---7-6---------------|---------7----7---5--|-4-----4---4----4----|---------------------| x3---------------------|---------------------|
-------------|-4-5-4---7---|-------4-----|-------------|-------------|-------------|
---7-6---------------|---------7----7---5--|-4-----4---4----4----|---------------------| x2---------------------|---------------------|
-------------|-4-5-4---7---|-------4-----|-------------|-------------|-------------|
---7-6-----------------|---------7----7---5--7-|-4-----4---4----4------|-----------------------|-----------------------|-----------------------|
---------------------------------- ---|-------7-------7--------7-------7- ---|-8-------9-------11-------9------- -4-|-9-------9--------9-------9------- x4 -4-|-6-------7--------7-------7------- -2-|---------------------------------- ---|
---7-6---------------9---9-7--|---------7----7---5----7------|-4-----4---4----4-------------|------------------------------|------------------------------|------------------------------|
x2---7-6-----------------9-11-9-11-7--|---------7----7---5--7--------------|-4-----4---4----4-------------------|------------------------------------|------------------------------------|------------------------------------|
-------0-0---2-2--0------|-4-4-2-----4--------4--2-|-------------------------|-------------------------|-------------------------|-------------------------|
Tap to rate this tab
 
# A B C D E F G H I J K L M N O P Q R S T U V W X Y Z