Animosity - Anti-kingdom tab

Hey :) This is my first tab for Animosity, I hope you like it. 
I'm not sure about the tuning, but I did in DROP-B, I think it sound's quite similar to the song.

Here you go: 

I

|----------------------------------||----------------------------------||-12---10--12--10-10/11/10----9-9--||-11---9---11--9--9-/10/9-----8-8--||-10---8---10--8--8-/9-/8-----7-7--||---00---0---0---0--------000------|
II
|-----------------||-----------------||-----------------||-----------------||-44331100114-3-1-||-----------------|
I III
|------------||------------||------------||-0-7-6-0-44-||-0-7-6-0-44-||-0-7-6-0-44-|
I II (I)
|--------------------------||--------------------------||-12---10--12--10-10/11/10-||-11---9---11--9--9-/10/9--||-10---8---10--8--8-/9-/8--||---00---0---0---0---------|
IV
|------------------------||------------------------||------------------------||---~8--~8-~7--~8--~~8---||------------------------||-00--00--0--00--00------|
Vx10|------------------||------------------||-6/7--------------||-5/6--------------||-4/5-6-5-3-5-3-0--||-----6-5-3-5-3-0--|
VI
|--------------------------------------------------------------------------------........|--------------------------------------------------------------------------------........|--------------------------------------------------------------------------------........|--------------------------------------------------------------------------------........|-----44-----22-----44-----2-----3---------44----22----44-----2-----3---------44-........|-000-44-000-22-000-44-000-2-000-3-000-000-44-00-22-00-44-000-2-000-3-000-000-44-........
VII4x|--------------------------------------------------------------||--------------------------------------------------------------||---------2h3p2p0---------2h3p2p0------------------------------||------------------------------------------10101010888877773~--||-5-5-555---------4-4-444---------1-1-111----------------------||--------------------------------------------------------------| * * *** * * *** * * ***
IV x2 VII x2 IV x2 VIII x4
|---------------------------------------||---------------------------------------||---------------------------------------||-0-010-0-3--010-0-4--010-0-4-3-2-3-2-0-||-0-010-0-3--010-0-4--010-0-4-3-2-3-2-0-||-0-010-0-3--010-0-4--010-0-4-3-2-3-2-0-|
|----------||----------||----------||-0~--(0)--||-0~--(0)--||-0~--(0)--|
IIX x3
|----------------------------------------------||------5h6p5-5h6p5/4h5p4-4h5p4----3h4p3/2h3p2--||----------------------------------------------||------------------------------00--------------||-0000-------------------------00--------------||-0000-------------------------00--------------|
IX
|--------------------------------------------------||------5h6p5-5h6p5/4h5p4-4h5p4-/3h4p3-3h4p3/2h3p2--||--------------------------------------------------||--------------------------------------------------||--------------------------------------------------||-0000---------------------------------------------||-0000---------------------------------------------|
(now slow) IIX x3 IX IIX x3 IX Please rate and comment!
Tap to rate this tab
 
# A B C D E F G H I J K L M N O P Q R S T U V W X Y Z