Anna Ternheim – Better Be tab

ANNA TERNHEIM - BETTER BE
 

 Capo på första bandet (Om du vill spela den akutistka versionen)
 Capo på andra bandet (Om du vill spela som Anna spelar live)
 Capo på tredje bandet (Om du vill spela efter orginalet på skivan)

Intro: |--------------------------------------------------| |-----1-----------0------------1-----------0-------| |---------2------------2-----------2-----------2---| |---2-------2---1--------1---2-------2---1-------1-| |-0-----0-----2------2-----0-----0-----2-----2-----| |--------------------------------------------------|
|--------------------------------------------------| |-----1-----------0------------1-----------0-------| |---------2------------2-----------2-----------2---| |---2-------2---1--------1---2-------2---1-------1-| |-0-----0-----2------2-----0-----0-----2-----2-----| |--------------------------------------------------|
|-------------------------------------| |-----0-----------0-----------0-------| |---------2-----------2-----------2---| |---1-------1---1-------1---1-------1-| |-2-----2-----2-----2-----2-----2-----| |-------------------------------------|
Vers: |--------------------------------------------------| |-----1-----------0------------1-----------0-------| |---------2------------2-----------2-----------2---| |---2-------2---1--------1---2-------2---1-------1-| |-0-----0-----2------2-----0-----0-----2-----2-----| |--------------------------------------------------|
|-----------------0-------| |-----1---------------1---| |---------0-----2-------2-| |---2-------2-0-----0-----| |-3-----3-----------------| |-------------------------|
|--------------------------------------------------| |-----1-----------0------------1-----------0-------| |---------2------------2-----------2-----------2---| |---2-------2---1--------1---2-------2---1-------1-| |-0-----0-----2------2-----0-----0-----2-----2-----| |--------------------------------------------------|
|-----------------0-----------3-----------3--------| |-----1---------------1-----------1-----------1----| |---------0-----2-------2---2-------2---2-------3--| |---2-------2-0-----0-----3-----3-----3-----3------| |-3-----3------------------------------------------| |--------------------------------------------------|
Refräng: |-----------------------------3-----------3--------| |-----1-----------0---------------1-----------1----| |---------0-----------0-----2-------2---2-------2--| |---2-------2---0-------0-3-----3-----3-----3------| |-3-----3------------------------------------------| |-------------3-----3------------------------------|
|-----------------------------3-----------3--------| |-----1-----------0---------------1-----------1----| |---------0-----------0-----2-------2---2-------2--| |---2-------2---0-------0-3-----3-----3-----3------| |-3-----3------------------------------------------| |-------------3-----3------------------------------|
|-----------------------------3-----------3--------| |-----1-----------0---------------1-----------1----| |---------0-----------0-----2-------2---2-------2--| |---2-------2---0-------0-3-----3-----3-----3------| |-3-----3------------------------------------------| |-------------3-----3------------------------------|
|--------------------------------------------------| |-----1-----------0-----------1-----------1--------| |---------0-----------0-----------2-----------0----| |---2-------2---0-------0---2-------2---2-------2--| |-3-----3-----------------0-----0-----3-----3------| |-------------3-----3------------------------------|
|-------------------------| |-----0-----------0-------| |---------0-----------0---| |---0-------0---0-------0-| |-------------------------| |-3-----3-----3-----3-----|
Mellanspel 1: |---------------------------------------------| |---1-----------0---------1-----------0-------| |---2---2-----------2-----2---2-----------2---| |---------2---1-------1---------2---1-------1-| |-0---0-----2-----2-----0---0-----2-----2-----| |---------------------------------------------|
Mellanspel 2: |--------------------------------------------------| |-----1-----------0------------1-----------0-------| |---------2------------2-----------2-----------2---| |---2-------2---1--------1---2-------2---1-------1-| |-0-----0-----2------2-----0-----0-----2-----2-----| |--------------------------------------------------|
Brygga: |--------------------------------------------------| |-----1----------1-----------0-----------0---------| |--------2-----------0-----------0-----------0-----| |---2------2---2-------2---0-------0---0-------0---| |-0----0-----3-----3-------------------------------| |------------------------3-----3-----3-----3-------|
|--------------------------------------------------| |-----1------------1-----------0----------0--------| |---------2------------2----------0-----------0----| |---2-------2---3--------3---0------0---0-------0--| |-0-----0-----3------3-----------------------------| |--------------------------3----3-----3-----3------|
Intro: Am H7 Am H7 :/ H7 [VERS 1] Am H7 Am H7 C Dm Me and you better laugh in 20 years from now Am H7 Am H7 with some perspective and dedication C Dm Fadd9 I will find somebody new [REFRÄNG 1] C G Fadd9 But he'd better be someone special C G Fadd9 He'd better be coming very soon C G Fadd9 Better be for real this time C G Am C G Oh I know it always was with you [MELLANSPEL 1] (Am H7 Am H7) [VERS 2] You or no one I hope I'm wrong before I die of boredom I want more than days and nights when I amuse myself alone [REFRÄNG 2] But he'd better be someone special he'd better be devoted just like you it'd better be for real this time Oh I know it always was with you [BRYGGA] Am C G With you Am F G With you Am H7 Am H7 (...direkt in på [MELLANSPEL 2]) With you [MELLANSPEL 2] [VERS 3] Friends forever oh no another girl will change your mind in less than half a summer so before you fall in love I wonder when you asked for something that I couldn't give you more of me and you I talk as if it's now but nothing is new [REFRÄNG 3] She'd better be someone special She'd better be more in love than me If I was your brightest hour she is now as far as I can see [BRYGGA 2] Am C G See... Am F G As far as I can see Am F G As far as I can see Am Well she'd better be... Am H7 Well she'd better be Am H7 Well she'd better be Från Deukalion: Det är lite småslarvigt här och där. Men det som ni tycker fattas får ni väl hitta på.
Please rate this tab:
x1.0