Annihilator - Hell Is A War tab

Annihilator - Hell Is A War

tabbed by 
ol753_357lo@yahoo.co.uk

Tuning - D A D G B E (Intro/Outro may be E A D G B E)


Both Gtrsplay twice|---------------------------------------------------||-------4--------------3--------4--------------1----||-----0----0---------0--------0----0---------0------||---1--------1-----0--------3--------3-----1--------||-3------------3-2--------1------------1-0----------||---------------------------------------------------|
Gtr 3play twice (Gtr 4 plays same an octave higher)|--------------------------------------------------------------||--------------------------------------------------------------||--------------------------------------------------------------||-5-----5-----5h6p5--3-----3------3-----3-----3h5p3--1-----1---||---3-3---3-3----------2-2----------1-1---1-1----------0-0-----||--------------------------------------------------------------|
Both Gtrs|---------------------------------------------------||-------4--------------3--------4--------------1----||-----0----0---------0--------0----0---------0------||---1--------1-----0--------3--------3-----3--------||-3------------3-2--------1------------1-0----------||---------------------------------------------------|
|---------------------------------------------------||-------4--------------3--------4--------------3----||-----0----0---------0--------0----0---------0------||---1--------1-----0--------3--------3-----0--------||-3------------3-2--------1------------1-2----------||---------------------------------------------------|
|---------------------------------------------------||-------4--------------3--------4--------------1----||-----0----0---------0--------0----0---------0------||---1--------1-----0--------3--------3-----3--------||-3------------3-2--------1------------1-0----------||---------------------------------------------------|
|-------------------------------------------------------------||----------------------3--4----------4--------------3---------||-------0------------3-------3-----0----0---------0----0------||-----6----6-------3-------------1--------1-----1--------1----||---3--------3---1-------------3------------3-3---------------||-6------------6----------------------------------------------|
|--------------------||---------------3----||-------0-------3----||-----6----6----3----||---3--------3--1----||-6------------------|
Gtr 1 PM| PM| PM PM--||----------------------------------------------------||----------------------------------------------------||----------------------------------------------------||-------6S9-----6---------------6S9-----6------------||-----5-----8-5-------1-3-0---5-----8-5---------1----||-0-0-------------0-0-1-3-0-0-------------0-0-0-1----|
PM PM| PM PM--||----------------------------------------------------||----------------------------------------------------||----------------------------------------------------||-------6S9-----6---------------6S9-----6------------||-0---5-----8-5-------1-3-0---5-----8-5---------1----||-0-0-------------0-0-1-3-0-0-------------0-0-0-1----|
Both Gtrsplay twice PM PM| PM PM--||----------------------------------------------------||----------------------------------------------------||----------------------------------------------------||-------6S9-----6---------------6S9-----6------------||-0---5-----8-5-------1-3-0---5-----8-5---------1----||-0-0-------------0-0-1-3-0-0-------------0-0-0-1----|
Gtr 1play twice PM PM| PM PM--||----------------------------------------------------||----------------------------------------------------||----------------------------------------------------||-------6S9-----6---------------6S9-----6------------||-0---5-----8-5-------1-3-0---5-----8-5---------1----||-0-0-------------0-0-1-3-0-0-------------0-0-0-1----|
Gtr 2play twice PM PM| PM PM--||--------------------------------------------------------||--------------------------------------------------------||--------------------------------------------------------||-------9S12------9---------------9S12------9------------||-0---8------11-8-------1-3-0---8------11-8---------1----||-0-0---------------0-0-1-3-0-0---------------0-0-0-1----|
VerseBoth Gtrs PM PM--------| PM----||--------------------------------------------------||--------------------------------------------------||--------------------------------------------------||--------------------------------------------------||-0---0-1--0-------------0---0-1--0---------4-1----||-0-0-0-1--0-0-0-0-0-0-0-0---0-1--0-0-0-0-0-4-1----|
PM PM--------| PM|--------------------------------------------------||-------------------------------------4-4-4-4-4----||-------------------------------------5-5-5-5-5----||-------------------------------------5-5-5-5-5----||-0---0-1--0-------------0---0-1--0---3-3-3-3-3----||-0-0-0-1--0-0-0-0-0-0-0-0---0-1--0-0--------------|
PM PM--------| PM----||--------------------------------------------------||--------------------------------------------------||--------------------------------------------------||--------------------------------------------------||-0---0-1--0-------------0---0-1--0---------4-1----||-0-0-0-1--0-0-0-0-0-0-0-0---0-1--0-0-0-0-0-4-1----|
PM PM--------| |--------------------------------------------------||-------------------------------------4-4-4-4-4----||-------------------------------------5-5-5-5-5----||-------------------------------------5-5-5-5-5----||-0---0-1--0-------------0---0-1--0---3-3-3-3-3----||-0-0-0-1--0-0-0-0-0-0-0-0---0-1--0----------------|
Both Gtrs PM| PM| PM PM--||----------------------------------------------------||----------------------------------------------------||----------------------------------------------------||-------6S9-----6---------------6S9-----6------------||-----5-----8-5-------1-3-0---5-----8-5---------1----||-0-0-------------0-0-1-3-0-0-------------0-0-0-1----|
Gtr 1 PM PM| PM PM--||----------------------------------------------------||----------------------------------------------------||----------------------------------------------------||-------6S9-----6---------------6S9-----6------------||-0---5-----8-5-------1-3-0---5-----8-5---------1----||-0-0-------------0-0-1-3-0-0-------------0-0-0-1----|
Gtr 2 PM PM| PM PM--||------------------------------------------------------||------------------------------------------------------||------------------------------------------------------||-------9S12------9---------------6S9-----6------------||-0---8------11-8-------1-3-0---5-----8-5---------1----||-0-0---------------0-0-1-3-0-0-------------0-0-0-1----|
Repeat Verse
Both Gtrsplay twice PM PM| PM PM--||----------------------------------------------------||----------------------------------------------------||----------------------------------------------------||-------6S9-----6---------------6S9-----6------------||-0---5-----8-5-------1-3-0---5-----8-5---------1----||-0-0-------------0-0-1-3-0-0-------------0-0-0-1----|
Gtr 1 PM PM| PM PM--||----------------------------------------------------||----------------------------------------------------||----------------------------------------------------||-------6S9-----6---------------6S9-----6------------||-0---5-----8-5-------1-3-0---5-----8-5---------1----||-0-0-------------0-0-1-3-0-0-------------0-0-0-1----|
Gtr 2 PM PM| PM PM--||--------------------------------------------------------||--------------------------------------------------------||--------------------------------------------------------||-------9S12------9---------------9S12------9------------||-0---8------11-8-------1-3-0---8------11-8---------1----||-0-0---------------0-0-1-3-0-0---------------0-0-0-1----|
Gtr 1 PM PM| PM PM----||-----------------------------------------------------||-----------------------------------------------------||-----------------------------------------------------||-------6S9-----6----------------6S9-----6------------||-0---5-----8-5-------1-3--0---5-----8-5--------------||-0-0-------------0-0-1-3--0-0-------------0-0-2-3----|
Gtr 2 PM PM| PM PM----||--------------------------------------------------------||--------------------------------------------------------||--------------------------------------------------------||-------9S12------9---------------9S12------9------------||-0---8------11-8-------1-3-0---8------11-8--------------||-0-0---------------0-0-1-3-0-0---------------0-0-2-3----|
Gtr 1, Gtr 2 accentuates PM-----| PM PM||-----------------------------||-----------------------------||-----------------------------||-----------------------------||----------6------6-----------||-5-6--0-0-6p=0-0-6p=0-0-0----|
PM PM| PM PM||---------------------------------||---------------------------------||---------------------------------||---------------------------------||-3---5--------6------6-----------||-3-0-5-0-0-0--6p=0-0-6p=0-0-0----|
Both Gtrsplay 6 times PM PM| PM PM||---------------------------------||---------------------------------||---------------------------------||---------------------------------||-3---5--------6------6-----------||-3-0-5-0-0-0--6p=0-0-6p=0-0-0----|
Both Gtrsplay twice PM----------| PM PM----------------| PM PM---||------------------------------------------------------------------||------------------------------------------------------------------||------------------------------------------------------------------||------------------------------------------------------------------||---------------6------6------------------------6------6-----------||-0-0-0-0-0-0-0-6p=0-0-6p=0-0-00-0-0-0-0-0-0-0--6p=0-0-6p=0-0-00---|
Both Gtrsplay 4 times, Gtr 3 Lead (to be added) PM PM----| PM PM||----------------------------------||----------------------------------||----------------------------------||----------------------------------||-3---5---------6------6-----------||-3-0-5-0-0-0-0-6p=0-0-6p=0-0-0----|
Both Gtrsplay 3 times PM----------| PM PM||--------------------------------||--------------------------------||--------------------------------||---------------3-----3----------||---------------1-----1----------||-2-2-2-2-2-2-2---2-2---2-2-2----|
4th time PM----------| PM|----------------------------------||----------------------------------||----------------------------------||---------------3------------------||---------------1-----5-5-4-3-0----||-2-2-2-2-2-2-2---2-2-5-5-4-3-0----|
Both Gtrs PM PM| PM PM||---------------------------------||---------------------------------||---------------------------------||---------------------------------||-3---5--------6------6-----------||-3-0-5-0-0-0--6p=0-0-6p=0-0-0----|
PM PM| PM PM||---------------------------------||---------------------------------||---------------------------------||---------------------------------||-3---5--------6------6-----------||-3-0-5-0-0-0--6p=0-0-6p=0-0-0----|
PM PM| PM|--------------------------||--------------------------||--------------------------||--------------------------||-3---5--------6------6----||-3-0-5-0-0-0--6p=0-0-6----|
Both Gtrs (*Gtr 2 plays an octave higher) PM--| *|--------------------------------------------------------||--------------------------------------------------------||-----------------------8-7------------------------------||---------------------6-----5-------7--------------------||-------3--5--0-0---5---------5-5-6---6-5-3-5-6-5-3-0----||-0-0-0-3--5--0-0-----------------------------------0----|
Repeat Verse
Both Gtrs|---------------------------------------------------||-------4--------------3--------4--------------1----||-----0----0---------0--------0----0---------0------||---1--------1-----0--------3--------3-----3--------||-3------------3-2--------1------------1-0----------||---------------------------------------------------|
|---------------------------------------------------||-------4--------------3--------4--------------3----||-----0----0---------0--------0----0---------0------||---1--------1-----0--------3--------3-----0--------||-3------------3-2--------1------------1-2----------||---------------------------------------------------|
|---------------------------------------------------||-------4--------------3--------4--------------1----||-----0----0---------0--------0----0---------0------||---1--------1-----0--------3--------3-----3--------||-3------------3-2--------1------------1-0----------||---------------------------------------------------|
|-------------------------------------------------------------||----------------------3--4----------4--------------3---------||-------0------------3-------3-----0----0---------0----0------||-----6----6-------3-------------1--------1-----1--------1----||---3--------3---1-------------3------------3-3---------------||-6------------6----------------------------------------------|
|--------------------||---------------3----||-------0-------3----||-----6----6----3----||---3--------3--1----||-6------------------|
Both Gtrs|---------------------------------------------------||-------4--------------3--------4--------------1----||-----0----0---------0--------0----0---------0------||---1--------1-----0--------3--------3-----1--------||-3------------3-2--------1------------1-0----------||---------------------------------------------------|
|---------------------------------------------------||-------4--------------3--------4--------------3----||-----0----0---------0--------0----0---------0------||---1--------1-----0--------3--------3-----0--------||-3------------3-2--------1------------1-2----------||---------------------------------------------------|
|---------------------------------------------------------||-------4--------------3--------4--------------------1----||-----0----0---------0--------0----0-------------0--------||---1--------1-----0--------3--------3-------1------------||-3------------3-2--------1------------1-0----------------||---------------------------------------------------------|
Gtr 3, (Gtr 4 plays same an octave higher)|--------------------------------------------------------------||--------------------------------------------------------------||--------------------------------------------------------------||-5-----5-----5h6p5--3-----3------3-----3-----3h5p3--1-----1---||---3-3---3-3----------2-2----------1-1---1-1----------0-0-----||--------------------------------------------------------------|
|--------------------------------------------------------------||--------------------------------------------------------------||--------------------------------------------------------------||-5-----5-----5h6p5--3-----3------3-----3-----3h5p3--3-----3---||---3-3---3-3----------2-2----------1-1---1-1----------2-2-----||--------------------------------------------------------------|
|---------------------------------------------------------------------||---------------------------------------------------------------------||---------------------------------------------------------------------||-5-----5-----5h6p5--3-----3------3-----3-----3h5p3--1------------1---||---3-3---3-3----------2-2----------1-1---1-1------------0----0-------||---------------------------------------------------------------------|
Tablature Legend ---------------- h - hammer-on p - pull-off b - bend pb - pre-bend r - bend release (if no number after the r, then release immediately) /\ - slide into or out of (from/to "nowhere") s - legato slide S - shift slide - natural harmonic [n] - artificial harmonic n(n) - tapped harmonic ~ - vibrato tr - trill T - tap TP - trem. picking PM - palm muting \n/ - tremolo bar dip; n = amount to dip \n - tremolo bar down n/ - tremolo bar up /n\ - tremolo bar inverted dip = - hold bend; also acts as connecting device for hammers/pulls <> - volume swell (louder/softer) x - on rhythm slash represents muted slash o - on rhythm slash represents single note slash Misc Legend ----------- | - bar || - double bar ||o - repeat start o|| - repeat end *| - double bar (ending) : - bar (freetime) $ - Segno & - Coda Tempo markers - = BPM(8/16=s8/s16), where s8 = swing 8ths, s16 = swing 16ths
Tap to rate this tab
 
# A B C D E F G H I J K L M N O P Q R S T U V W X Y Z