Annihilator - Pastor Of Disaster tab

#----------------------------------PLEASE NOTE---------------------------------#
#This file is the author's own work and represents their interpretation of the #
#song. You may only use this file for private study, scholarship, or research. #
#------------------------------------------------------------------------------##
(If anyone would like to use these tabs for commercial use ie. Websites etc.
                 please seek permission as copyrights are held)

Annihilator - Pastor Of Disaster

tabbed by ol753
www.annihilatormetal.com
ol753_357lo@yahoo.co.uk

Tuning - D A D G B E


Gtr 1play twice, Gtr 2 joins 2nd time PM PM PM PM|-----------------------------------------------------------------||-----------------------------------------------------------------||-----------------------------------------------------------------||-----------------------------------------------------------------||-0---2-3---2-3--0---2-3---6-1--0---2-3---2-3--0---2-3---6-1-1----||-0---2-3-0-2-3--0---2-3-0-6-1--0---2-3-0-2-3--0---2-3-0-6-1-1----|
Both Gtrsplay twice PM PM PM PM|-----------------------------------------------------------------||-----------------------------------------------------------------||-----------------------------------------------------------------||-----------------------------------------------------------------||-0---2-3---2-3--0---2-3---6-1--0---2-3---2-3--0---2-3---6-1-1----||-0---2-3-0-2-3--0---2-3-0-6-1--0---2-3-0-2-3--0---2-3-0-6-1-1----|
Both Gtrs PM PM PM PM PM PM PM PM PM PM|--------------------------------------------------------------------||--------------------------------------------------------------------||--------------------------------------------------------------------||--------------------------------------------------------------------||-0---2-3---2-3---0---2-3---6-1---0---2-3---2-3---0---2-3---6-1-1----||-0---2-3-0-2-3-0-0-0-2-3-0-6-1-1-0-0-2-3-0-2-3-0-0-0-2-3-0-6-1-1----|
PM PM PM PM PM PM PM PM PM PM|--------------------------------------------------------------------||--------------------------------------------------------------------||--------------------------------------------------------------------||--------------------------------------------------------------------||-0---2-3---2-3---0---2-3---6-1---0---2-3---2-3---0---2-3---6-1-1-0--||-0---2-3-0-2-3-0-0-0-2-3-0-6-1-1-0-0-2-3-0-2-3-0-0-0-2-3-0-6-1-1-0--|
Gtr 3 PM PM PM PM PM PM PM PM|--------8------------------------------------8-----------------------------||---10-------10------10---10b11r=10------10-------10------------------------||-7----7---7----7--7----7--------------7----7---7----7--7-10-7-10b12r=10----||---------------------------------------------------------------------------||---------------------------------------------------------------------------||---------------------------------------------------------------------------|
PM PM PM PM PM PM PM PM|--------8------------------------------------8-------------------------------||---10-------10------10---10b11r=10------10-------10--------------------------||-7----7---7----7--7----7--------------7----7---7----7--7-10-7-[10]b12r=10----||-----------------------------------------------------------------------------||-----------------------------------------------------------------------------||-----------------------------------------------------------------------------|
Both Gtrs PM|------------||------------||------------||------------||---6-1-1----||-0-6-1-1----|
Both Gtrs PM PM PM PM PM PM PM PM PM PM PM|--------------------------------------------------------------------||--------------------------------------------------------------------||--------------------------------------------------------------------||--------------------------------------------------------------------||-0---2-3---2-3---0---2-3---6-1---0---2-3---2-3---0---2-3---6-1-1----||-0-0-2-3-0-2-3-0-0-0-2-3-0-6-1-1-0-0-2-3-0-2-3-0-0-0-2-3-0-6-1-1----|
PM PM PM PM PM PM PM PM PM PM|--------------------------------------------------------------------||--------------------------------------------------------------------||--------------------------------------------------------------------||--------------------------------------------------------------------||-0---2-3---2-3---0---2-3---6-1---0---2-3---2-3---0---2-3---6-1-1-0--||-0---2-3-0-2-3-0-0-0-2-3-0-6-1-1-0-0-2-3-0-2-3-0-0-0-2-3-0-6-1-1-0--|
Gtr 1play twice|----------||-13b15\---||----------||----------||----------||----------|
Gtr 2play twice|----------||-16b18\---||----------||----------||----------||----------|
Both Gtrs PM|--------------||--------------||--------------||--------------||---6-1-1------||-0-6-1-1-0----|
Gtr 1|----------------------------------||----------------------------------||-----0-----5-----------0-----5----||---3-----5-----------3-----5------||-5-----6-----------5-----6--------||----------------------------------|
|---------------------------------------------------||---------------------------------------------------||-----0-----5-----------0-----5---------------------||---3-----5-----------3-----5-----------------------||-5-----6-----------5-----6-------3--5-5-3-3-2-1----||---------------------------------3--5-5-3-3-2-1----|
Gtr 2|-----------------------------------------------------||-----------------------------------------------------||-----0-----5-----------0-----5-----------------------||---3-----5-----------3-----5-------------------------||-5-----6-----------5-----6-------3--5-5-3-5-5-3-0----||---------------------------------3--5-5-3-5-5-3-0----|
|---------------------------------------------------||---------------------------------------------------||-----0-----5-----------0-----5---------------------||---3-----5-----------3-----5-----------------------||-5-----6-----------5-----6-------3--5-5-3-3-2-1----||---------------------------------3--5-5-3-3-2-1----|
Both Gtrs PM PM PM PM PM PM PM PM PM PM|--------------------------------------------------------------------||--------------------------------------------------------------------||--------------------------------------------------------------------||--------------------------------------------------------------------||-0---2-3---2-3---0---2-3---6-1---0---2-3---2-3---0---2-3---6-1-1----||-0---2-3-0-2-3-0-0-0-2-3-0-6-1-1-0-0-2-3-0-2-3-0-0-0-2-3-0-6-1-1----|
PM PM PM PM PM PM PM PM PM PM|--------------------------------------------------------------------||--------------------------------------------------------------------||--------------------------------------------------------------------||--------------------------------------------------------------------||-0---2-3---2-3---0---2-3---6-1---0---2-3---2-3---0---2-3---6-1-1-0--||-0---2-3-0-2-3-0-0-0-2-3-0-6-1-1-0-0-2-3-0-2-3-0-0-0-2-3-0-6-1-1-0--|
Gtr 3 PM PM PM PM PM PM PM PM|--------8------------------------------------8-----------------------------||---10-------10------10---10b11r=10------10-------10------------------------||-7----7---7----7--7----7--------------7----7---7----7--7-10-7-10b12r=10----||---------------------------------------------------------------------------||---------------------------------------------------------------------------||---------------------------------------------------------------------------|
PM PM PM PM PM PM PM PM|--------8------------------------------------8-------------------------------||---10-------10------10---10b11r=10------10-------10--------------------------||-7----7---7----7--7----7--------------7----7---7----7--7-10-7-[10]b12r=10----||-----------------------------------------------------------------------------||-----------------------------------------------------------------------------||-----------------------------------------------------------------------------|
Both Gtrs PM|--------------||--------------||--------------||--------------||---6-1-1------||-0-6-1-1-0----|
Gtr 1|-------------------------------------------------||-------------------------------------------------||-----0-----5-----------0-----5-------------------||---3-----5-----------3-----5---------------------||-5-----6-----------5-----6------------5-5-3-0----||--------------------------------------5-5-3-0----|
|-----------------------------------------------------||-----------------------------------------------------||-----0-----5-----------0-----5-----------------------||---3-----5-----------3-----5-------------------------||-5-----6-----------5-----6-------3--5-5-3-5-5-3-0----||---------------------------------3--5-5-3-5-5-3-0----|
|-------------------------------------------------||-------------------------------------------------||-----0-----5-----------0-----5-------------------||---3-----5-----------3-----5---------------------||-5-----6-----------5-----6------------5-5-3-0----||--------------------------------------5-5-3-0----|
|---------------------------------------------------||---------------------------------------------------||-----0-----5-----------0-----5---------------------||---3-----5-----------3-----5-----------------------||-5-----6-----------5-----6-------3--5-5-3-3-2-1-0--||---------------------------------3--5-5-3-3-2-1-0--|
Gtr 2|-----------------------------------------------------||-----------------------------------------------------||-----0-----5-----------0-----5-----------------------||---3-----5-----------3-----5-------------------------||-5-----6-----------5-----6-------3--5-5-3-5-5-3-0----||---------------------------------3--5-5-3-5-5-3-0----|
|-----------------------------------------------------||-----------------------------------------------------||-----0-----5-----------0-----5-----------------------||---3-----5-----------3-----5-------------------------||-5-----6-----------5-----6-------3--5-5-3-5-5-3-0----||---------------------------------3--5-5-3-5-5-3-0----|
PM PM PM PM|-------------------------------------------------------------------------||-------------------------------------------------------------------------||-----0-----5------------------------------0-----5------------------------||---3-----5------------------------------3-----5--------------------------||-5-----6-------3---5-5-3-5-5-3-0------5-----6-------3---5-5-3-5-5-3-0----||-------------0-3-0-5-5-3-5-5-3-0------------------0-3-0-5-5-3-5-5-3-0----|
PM PM|----------------------------------------------------------------------||----------------------------------------------------------------------||-----0-----5------------------------------0-----5---------------------||---3-----5------------------------------3-----5-----------------------||-5-----6-------3---5-5-3-5-5-3-0------5-----6-------3--5-5-3-3-2-1-0--||-------------0-3-0-5-5-3-5-5-3-0--------------------3--5-5-3-3-2-1-0--|
Both Gtrsplay 4 times PM PM PM| PM PM PM| PM PM PM--| PM| PM|--------------------------------------------------------------------||--------------------------------------------------------------------||--------------------------------------------------------------------||-7---7---7-------7---7---7-------7---7---7--------------------------||-6---6---6-------6---6---6-------6---6---6---------6-3-----6-3------||---0---0---0-0-0---0---0---0-0-0---0---0---0-0-0-0-6-3-0-0-6-3-0----|
Both Gtrsplay twice, Gtr 3 Lead (to be added) PM----------------------------------------------| PM||--------------------------------------------------------------------||--------------------------------------------------------------------||--------------------------------------------------------------------||--------------------------------------------------------------------||---------------------------------------------------6-3-----6-3------||-0-0-0-0-0-0-0-0-0-0-0-0-0-0-0-0-0-0-0-0-0-0-0-0-0-6-3-0-0-6-3-0----|
Both Gtrs PM--------------------------| PM PM------||----------------------------------------------------------------||----------------------------------------------------------------||---------------------------------4---4--------------------------||---------------------------------3---3--------------------------||-2-------------------------------------------------5-5-4-3-0----||-2-2-2-2-2-2-2-2-2-2-2-2-2-2-2-2---2---2-2-2-2-2-2-5-5-4-3-0----|
PM PM PM| PM PM PM| PM PM PM--| PM||-----------------------------------------------------------------||-----------------------------------------------------------------||-----------------------------------------------------------------||-7---7---7-------7---7---7-------7---7---7-----------------------||-6---6---6-------6---6---6-------6---6---6---------6-3-----6-3---||---0---0---0-0-0---0---0---0-0-0---0---0---0-0-0-0-6-3-0-0-6-3---|
Gtr 1, Gtr 2 joins halfway PM PM PM PM|-----------------------------------------------------------------||-----------------------------------------------------------------||-----------------------------------------------------------------||-----------------------------------------------------------------||-0---2-3---2-3--0---2-3---6-1--0---2-3---2-3--0---2-3---6-1-1----||-0---2-3-0-2-3--0---2-3-0-6-1--0---2-3-0-2-3--0---2-3-0-6-1-1----|
Both Gtrs|-------------------------------------------------||-------------------------------------------------||-----0-----5-----------0-----5-------------------||---3-----5-----------3-----5---------------------||-5-----6-----------5-----6------------5-5-3-0----||--------------------------------------5-5-3-0----|
|-----------------------------------------------------||-----------------------------------------------------||-----0-----5-----------0-----5-----------------------||---3-----5-----------3-----5-------------------------||-5-----6-----------5-----6-------3--5-5-3-5-5-3-0----||---------------------------------3--5-5-3-5-5-3-0----|
Gtr 1|-------------------------------------------------||-------------------------------------------------||-----0-----5-----------0-----5-------------------||---3-----5-----------3-----5---------------------||-5-----6-----------5-----6------------5-5-3-0----||--------------------------------------5-5-3-0----|
|-----------------------------------------------------||-----------------------------------------------------||-----0-----5-----------0-----5-----------------------||---3-----5-----------3-----5-------------------------||-5-----6-----------5-----6-------3--5-5-3-5-5-3-0----||---------------------------------3--5-5-3-5-5-3-0----|
|----------------------------------||----------------------------------||-----0-----5-----------0-----5----||---3-----5-----------3-----5------||-5-----6-----------5-----6--------||----------------------------------|
|--------------------------------------------------||--------------------------------------------------||-----0-----5-----------0-----5--------------------||---3-----5-----------3-----5----------------------||-5-----6-----------5-----6-------3--5-5-3-3-2-1---||---------------------------------3--5-5-3-3-2-1---|
Gtr 2play 3 times PM PM PM PM|-------------------------------------------------------------------------||-------------------------------------------------------------------------||-----0-----5------------------------------0-----5------------------------||---3-----5------------------------------3-----5--------------------------||-5-----6-------3---5-5-3-5-5-3-0------5-----6-------3---5-5-3-5-5-3-0----||-------------0-3-0-5-5-3-5-5-3-0------------------0-3-0-5-5-3-5-5-3-0----|
4th time PM PM|----------------------------------------------------------------------||----------------------------------------------------------------------||-----0-----5------------------------------0-----5---------------------||---3-----5------------------------------3-----5-----------------------||-5-----6-------3---5-5-3-5-5-3-0------5-----6-------3--5-5-3-3-2-1-0--||-------------0-3-0-5-5-3-5-5-3-0--------------------3--5-5-3-3-2-1-0--|
Both Gtrsplay twice PM PM PM PM PM PM PM PM PM PM|--------------------------------------------------------------------||--------------------------------------------------------------------||--------------------------------------------------------------------||--------------------------------------------------------------------||-0---2-3---2-3---0---2-3---6-1---0---2-3---2-3---0---2-3---6-1-1----||-0---2-3-0-2-3-0-0-0-2-3-0-6-1-1-0-0-2-3-0-2-3-0-0-0-2-3-0-6-1-1----|
PM PM PM PM PM PM PM PM PM PM|--------------------------------------------------------------------||--------------------------------------------------------------------||--------------------------------------------------------------------||--------------------------------------------------------------------||-0---2-3---2-3---0---2-3---6-1---0---2-3---2-3---0---2-3---6-1-1-0--||-0---2-3-0-2-3-0-0-0-2-3-0-6-1-1-0-0-2-3-0-2-3-0-0-0-2-3-0-6-1-1-0--|
Gtr 3play twice PM PM PM PM PM PM PM PM|--------8------------------------------------8-----------------------------||---10-------10------10---10b11r=10------10-------10------------------------||-7----7---7----7--7----7--------------7----7---7----7--7-10-7-10b12r=10----||---------------------------------------------------------------------------||---------------------------------------------------------------------------||---------------------------------------------------------------------------|
PM PM PM PM PM PM PM PM|--------8------------------------------------8-------------------------------||---10-------10------10---10b11r=10------10-------10--------------------------||-7----7---7----7--7----7--------------7----7---7----7--7-10-7-[10]b12r=10----||-----------------------------------------------------------------------------||-----------------------------------------------------------------------------||-----------------------------------------------------------------------------|
Both Gtrs PM PM PM PM PM PM PM PM PM PM|--------------------------------------------------------------------||--------------------------------------------------------------------||--------------------------------------------------------------------||--------------------------------------------------------------------||-0---2-3---2-3---0---2-3---6-1---0---2-3---2-3---0---2-3---6-1-1----||-0---2-3-0-2-3-0-0-0-2-3-0-6-1-1-0-0-2-3-0-2-3-0-0-0-2-3-0-6-1-1----|
PM PM PM PM PM PM PM PM----------------||----------------------------------------------------------------------------||----------------------------------------------------------------------------||----------------------------------------------------------------------------||----------------------------------------------------------------------------||-0---2-3---2-3---0---2-3---6-1---0---2-3---2-3-------------------------0----||-0---2-3-0-2-3-0-0-0-2-3-0-6-1-1-0-0-2-3-0-2-3-0-0-0-0-0-0-0-0-0-0-----0----|
Tablature Legend ---------------- h - hammer-on p - pull-off b - bend pb - pre-bend r - bend release (if no number after the r, then release immediately) /\ - slide into or out of (from/to "nowhere") s - legato slide S - shift slide - natural harmonic [n] - artificial harmonic n(n) - tapped harmonic ~ - vibrato tr - trill T - tap TP - trem. picking PM - palm muting \n/ - tremolo bar dip; n = amount to dip \n - tremolo bar down n/ - tremolo bar up /n\ - tremolo bar inverted dip = - hold bend; also acts as connecting device for hammers/pulls <> - volume swell (louder/softer) x - on rhythm slash represents muted slash o - on rhythm slash represents single note slash Misc Legend ----------- | - bar || - double bar ||o - repeat start o|| - repeat end *| - double bar (ending) : - bar (freetime) $ - Segno & - Coda Tempo markers - = BPM(8/16=s8/s16), where s8 = swing 8ths, s16 = swing 16ths
Tap to rate this tab
 
# A B C D E F G H I J K L M N O P Q R S T U V W X Y Z