Annihilator - Criteria For A Black Widow tab

#----------------------------------PLEASE NOTE---------------------------------#
#This file is the author's own work and represents their interpretation of the #
#song. You may only use this file for private study, scholarship, or research. #
#------------------------------------------------------------------------------##
(If anyone would like to use these tabs for commercial use ie. Websites etc.
                 please seek permission as copyrights are held)

Annihilator - Criteria For A Black Widow

tabbed by ol753
www.annihilatormetal.com
ol753_357lo@yahoo.co.uk

Tuning - E A D G B E


Both Gtrsplay 3 times PM----------||------------------||------------------||------------------||------------------||------------------||-*-*-*-*-*-*-*----|
Both Gtrsplay twice PM| PM| PM| PM| PM-------| PM||-----0-----0-----0-----0------------0-----0-0----||---5-----7-----8-----7-----5------5-----7---8----||-3-----5-----6-----5-----3---3--3-----5-----6----||-------------------------------------------------||-------------------------------------------------||-------------------------------------------------|
PM----------||------------------||------------------||------------------||------------------||------------------||-*-*-*-*-*-*-*----|
PM| PM| PM| PM| PM-------| PM||-----0-----0-----0-----0-----0------0-----0-0----||---5-----7-----8-----7-----5------5-----7---8----||-3-----5-----6-----5-----3------3-----5-----6----||-------------------------------------------------||-------------------------------------------------||-------------------------------------------------|
PM----------||------------------||------------------||------------------||------------------||------------------||-*-*-*-*-*-*-*----|
VerseBoth Gtrsplay 4 times PM----------||------------------||------------------||------------------||------------------||------------------||-*-*-*-*-*-*-*----|
ChorusBoth Gtrsplay 8 times|-------------------------------------||-------------------------------------||-------------------------------------||-------------------------------------||-8S5---10S7---11S8---10S7---8S5-2----||-6S3-0--8S5-0--9S6-0--8S5-0-6S3-0----|
Both Gtrsplay twice PM| PM| PM| PM| PM-------| PM||-----0-----0-----0-----0------------0-----0-0----||---5-----7-----8-----7-----5------5-----7---8----||-3-----5-----6-----5-----3---3--3-----5-----6----||-------------------------------------------------||-------------------------------------------------||-------------------------------------------------|
VerseBoth Gtrsplay 8 times PM--------------------------||----------------------------------||----------------------------------||----------------------------------||----------------------------------||----------------------------------||-6-3-0-8-5-0-9-6-0-8-5-0-6-3-0----|
play chorus twice
Both Gtrsplay 3 times|-----------------------------------------------------------||-----------------------------------------------------------||-----------------------------------------------------------||-----------------------------------------------------------||-2h4-4-4-4--4--2h4-4-4-4--4--4-2-2-2-2--2--2-2-2-2-2--2----||-0h2-2-2-2--2--0h2-2-2-2--2--2-0-0-0-0--0--0-0-0-0-0--0----|
4th time|-----------------------------------------------------------------------||-----------------------------------------------------------------------||-9-9-9-9-9--9--9-9-9-9-9--9--11-11-11-11-11--11--11-11-11-11-11--11----||-7-7-7-7-7--7--7-7-7-7-7--7---9--9--9--9--9---9---9--9--9--9--9---9----||-5-5-5-5-5--5--5-5-5-5-5--5---7--7--7--7--7---7---7--7--7--7--7---7----||-----------------------------------------------------------------------|
Both Gtrs play above twice
Gtr 3play twice|------------------------------------------------------------||------------------------------------------------------------||----------6---------6--6--------------4---------4--4--------||-4--4-6-7-----4-6-7------7-6-4--4-6-7-----4-6-7------7-6----||------------------------------------------------------------||------------------------------------------------------------|
|-------------------------------------------------------------||-------------------------------------------------------------||----------6--------6--6--------------4----4-------6-4--------||-4--4-6-7----4-6-7------7-6-4--4-6-7----7---7-6-4-----7-6----||-------------------------------------------------------------||-------------------------------------------------------------|
|----------------------------------------------------------||----------------------------------------------------------||----------6--------6--6--------------4--------4--4--------||-4--4-6-7----4-6-7------7-6-4--4-6-7----4-6-7------7-6----||----------------------------------------------------------||----------------------------------------------------------|
|-----------------------------------------------------||-------5-------------5------------9-------------9----||-----------------------------------------------------||-4-6-7-----7-6-4-6-7-----7--6-7-9-----9-7-6-7-9------||-----------------------------------------------------||-----------------------------------------------------|
Gtr 4play 2nd time|----------------------------------------------------------------||----------------------------------------------------------------||-----------9---------9--9----------------7---------7--7---------||-7--7-9-11----7-9-11------11-9-7--7-9-11----7-9-11------11-9----||----------------------------------------------------------------||----------------------------------------------------------------|
|--------------------------------------------------------------------||--------------------------------------------------------------------||-----------9---------9--9----------------7-----7--------9-7---------||-7--7-9-11----7-9-11------11-9-7--7-9-11----11---11-9-7-----11-9----||--------------------------------------------------------------------||--------------------------------------------------------------------|
|----------------------------------------------------------------||----------------------------------------------------------------||-----------9---------9--9----------------7---------7--7---------||-7--7-9-11----7-9-11------11-9-7--7-9-11----7-9-11------11-9----||----------------------------------------------------------------||----------------------------------------------------------------|
|--------------------------------------------------------------||--------7--------------7--------------12----------------12----||--------------------------------------------------------------||-7-9-11----11-9-7-9-11----11--9-11-12-----12-11-9-11-12-------||--------------------------------------------------------------||--------------------------------------------------------------|
Gtr 1|--------------------------------------------------------------------------------||--------------------------------------------------------------------------------||--------------------------------------------------------------------------------||--------------------------------------------------------------------------------||---3S6-----9S12-------15S12------9S6-----3S6-----9S12-------15S12------9S6------||-2-----5S8------11S14-------11S8-----5S2-----5S8------11S14-------11S8-----5----|
Gtr 2|----------------------------------------------------------------------------------------||----------------------------------------------------------------------------------------||----------------------------------------------------------------------------------------||----------------------------------------------------------------------------------------||---6S9------12S15-------18S15-------12S9-----6S9------12S15-------18S15-------12S9------||-5-----8S11-------14S17-------14S11------8S5-----8S11-------14S17-------14S11------8----|
Both Gtrsplay twice, Gtr 3 Lead (to be added) PM| PM| PM| PM||----------------------------------||----------------------------------||-2-----4-----5-----7--------------||-2-----4-----5-----7-----9--10----||-------------------------7---8----||---2-2---4-4---5-5---7-7----------|
Both Gtrsplay twice PM| PM| PM| PM| PM| PM| PM| PM||-----------------------------------------------------------------||-----------------------------------------------------------------||-2-----2-----2-----2-----2h4-4--2-----2-----2-----2-----2h4-4----||-2-----2-----2-----2-----2h4-4--2-----2-----2-----2-----2h4-4----||-----------------------------------------------------------------||---2-2---2-2---2-2---2-2----------2-2---2-2---2-2---2-2----------|
PM| PM| PM| PM| PM| PM| PM| PM||-----------------------------------------------------------------||-----------------------------------------------------------------||-2-----2-----2-----2-----2h4-4--2-----2-----2-----2-----2h4-4----||-2-----2-----2-----2-----2h4-4--2-----2-----2-----2-----2h4-4----||-----------------------------------------------------------------||---0-0---0-0---0-0---0-0----------0-0---0-0---0-0---0-0----------|
PM| PM| PM| PM| PM| PM| PM| PM||-----------------------------------------------------------------||-----------------------------------------------------------------||-4-----4-----4-----4-----4h6----4-----4-----4-----4-----4h6------||-4-----4-----4-----4-----4h6-6--4-----4-----4-----4-----4h6-6----||-----------------------------6------------------------------6----||---4-4---4-4---4-4---4-4----------4-4---4-4---4-4---4-4----------|
PM| PM| PM| PM| PM| PM||-------------------------------------------------------------------||-------------------------------------------------------------------||-5-----5-----5-----5-----5h7-7--7-----7----------------------------||-5-----5-----5-----5-----5h7-7--7-----7----------------------------||--------------------------------------------9-9-9-9-8-8-7-7-6-6----||---5-5---5-5---5-5---5-5----------7-7---7-7-7-7-7-7-6-6-5-5-4-4----|
Both Gtrsplay 3 times|-----------------------------------------------------------||-----------------------------------------------------------||-----------------------------------------------------------||-----------------------------------------------------------||-2h4-4-4-4--4--2h4-4-4-4--4--4p2-2-2-2--2--2-2-2-2-2--2----||-0h2-2-2-2--2--0h2-2-2-2--2--2p0-0-0-0--0--0-0-0-0-0--0----|
4th time|-----------------------------------------------------------------------||-----------------------------------------------------------------------||-9-9-9-9-9--9--9-9-9-9-9--9--11-11-11-11-11--11--11-11-11-11-11--11----||-7-7-7-7-7--7--7-7-7-7-7--7---9--9--9--9--9---9---9--9--9--9--9---9----||-5-5-5-5-5--5--5-5-5-5-5--5---7--7--7--7--7---7---7--7--7--7--7---7----||-----------------------------------------------------------------------|
Both Gtrs play above twice
Gtr 3play twice|------------------------------------------------------------||------------------------------------------------------------||----------6---------6--6--------------4---------4--4--------||-4--4-6-7-----4-6-7------7-6-4--4-6-7-----4-6-7------7-6----||------------------------------------------------------------||------------------------------------------------------------|
|-------------------------------------------------------------||-------------------------------------------------------------||----------6--------6--6--------------4----4-------6-4--------||-4--4-6-7----4-6-7------7-6-4--4-6-7----7---7-6-4-----7-6----||-------------------------------------------------------------||-------------------------------------------------------------|
|----------------------------------------------------------||----------------------------------------------------------||----------6--------6--6--------------4--------4--4--------||-4--4-6-7----4-6-7------7-6-4--4-6-7----4-6-7------7-6----||----------------------------------------------------------||----------------------------------------------------------|
|-----------------------------------------------------||-------5-------------5------------9-------------9----||-----------------------------------------------------||-4-6-7-----7-6-4-6-7-----7--6-7-9-----9-7-6-7-9------||-----------------------------------------------------||-----------------------------------------------------|
Gtr 4play 2nd time|----------------------------------------------------------------||----------------------------------------------------------------||-----------9---------9--9----------------7---------7--7---------||-7--7-9-11----7-9-11------11-9-7--7-9-11----7-9-11------11-9----||----------------------------------------------------------------||----------------------------------------------------------------|
|--------------------------------------------------------------------||--------------------------------------------------------------------||-----------9---------9--9----------------7-----7--------9-7---------||-7--7-9-11----7-9-11------11-9-7--7-9-11----11---11-9-7-----11-9----||--------------------------------------------------------------------||--------------------------------------------------------------------|
|----------------------------------------------------------------||----------------------------------------------------------------||-----------9---------9--9----------------7---------7--7---------||-7--7-9-11----7-9-11------11-9-7--7-9-11----7-9-11------11-9----||----------------------------------------------------------------||----------------------------------------------------------------|
|--------------------------------------------------------------||--------7--------------7--------------12----------------12----||--------------------------------------------------------------||-7-9-11----11-9-7-9-11----11--9-11-12-----12-11-9-11-12-------||--------------------------------------------------------------||--------------------------------------------------------------|
Gtr 1|--------------------------------------------------------------------------------||--------------------------------------------------------------------------------||--------------------------------------------------------------------------------||--------------------------------------------------------------------------------||---3S6-----9S12-------15S12------9S6-----3S6-----9S12-------15S12------9S6------||-2-----5S8------11S14-------11S8-----5S2-----5S8------11S14-------11S8-----5----|
Gtr 2|----------------------------------------------------------------------------------------||----------------------------------------------------------------------------------------||----------------------------------------------------------------------------------------||----------------------------------------------------------------------------------------||---6S9------12S15-------18S15-------12S9-----6S9------12S15-------18S15-------12S9------||-5-----8S11-------14S17-------14S11------8S5-----8S11-------14S17-------14S11------8----|
Gtr 1|--------------------------------------------------------------------||--------------------------------------------------------------------||-------8-9-------------8-7-------------8-9-------------8-7----------||-----7-----8---------7-----6---------7-----8---------7-----6--------||---6---------7-----6---------5-----6---------7-----6---------5------||-5-------------6-5-------------4-5-------------6-5-------------4----|
|----------------------||----------------------||-------6-5------------||-----5-----4----------||---4---------3--------||-3-------------2-1----|
|-------------------------------------------------------------||-------------------------------------------------------------||--------------------------------------------12-14-15-[14]----||-----------------10-12-13----------11-13-14------------------||---------9-11-12----------10-12-13---------------------------||-8-10-11-----------------------------------------------------|
Gtr 2|------------------------------------------------------------------------------------||------------------------------------------------------------------------------------||--------11-12----------------11-10--------------11-12----------------11-10----------||-----10-------11----------10-------9---------10-------11----------10-------9--------||---9-------------10-----9------------8-----9-------------10-----9------------8------||-8------------------9-8----------------7-8------------------9-8----------------7----|
|----------------------||----------------------||-------9-8------------||-----8-----7----------||---7---------6--------||-6-------------5-4----|
|---------------------------------------------------------------||---------------------------------------------------------------||----------------------------------------------15-17-18-[17]----||-------------------13-15-16----------14-16-17------------------||----------12-14-15----------13-15-16---------------------------||-11-13-14------------------------------------------------------|
VerseBoth Gtrsplay 8 times PM--------------------------||----------------------------------||----------------------------------||----------------------------------||----------------------------------||----------------------------------||-6-3-0-8-5-0-9-6-0-8-5-0-6-3-0----|
ChorusBoth Gtrsplays to fade, Gtr 3 Whammy bar stuff|-------------------------------------||-------------------------------------||-------------------------------------||-------------------------------------||-8S5---10S7---11S8---10S7---8S5-2----||-6S3-0--8S5-0--9S6-0--8S5-0-6S3-0----|
Tablature Legend ---------------- h - hammer-on p - pull-off b - bend pb - pre-bend r - bend release (if no number after the r, then release immediately) /\ - slide into or out of (from/to "nowhere") s - legato slide S - shift slide - natural harmonic [n] - artificial harmonic n(n) - tapped harmonic ~ - vibrato tr - trill T - tap TP - trem. picking PM - palm muting \n/ - tremolo bar dip; n = amount to dip \n - tremolo bar down n/ - tremolo bar up /n\ - tremolo bar inverted dip = - hold bend; also acts as connecting device for hammers/pulls <> - volume swell (louder/softer) x - on rhythm slash represents muted slash o - on rhythm slash represents single note slash Misc Legend ----------- | - bar || - double bar ||o - repeat start o|| - repeat end *| - double bar (ending) : - bar (freetime) $ - Segno & - Coda Tempo markers - = BPM(8/16=s8/s16), where s8 = swing 8ths, s16 = swing 16ths
Tap to rate this tab
 
# A B C D E F G H I J K L M N O P Q R S T U V W X Y Z