Annotations Of An Autopsy - Human Dust tab

Human Dust - Before The Throne Of Infection

Tuning - B F# B E G# C#


Key: Trem - ^
     Pinch Harmonics - *
     Hammer on - h
     Pull off - p
     Note Slide - \

INTRO|------------------------| |------------------ \|------------------------| --------- |---------------- \|------------------------| DRUM FILL |---------------- \|------------------------| --------- |---------------- \|------------------------| |------------------ \|-00000-----0--0-00000---| x4 |--------00000- \
(3x)|---------------------------------------------------------------------------||---------------------------------------------------------------------------||---------------------------------------------------------------------------||---------------------------------------------------------------------------||---------------------------333333333---------------------------------------||-333333333333-5555-22222222----------666666666666-3333-555555555-00000000--|
|-----------------------------------------------------------------||-----------------------------------------------------------------||-----------------------------------------------------------------||-----------------------------------------------------------------||----------------------------333333333----------------3-5-3-2-3---||-333333333333-5555-22222222-----------666666666666---3-5-3-2-3---|
|------------------------------------------------------ \|------------------------------------------------------ \|------------------------------------------------- ---- \|------------------------------------------------- --- \|-2---0-2-1---0-1-0---1------------1h4p1h4p1------ -- \|-2---0-2-1---0-1-0---1---1h4p1h4p1-------------------- \ \ 2x fast
/ &|------------------------------------------------- \ / 2x slow|------------------------------------------------- \ /|------------------------------------------------- \ /|------------------------------------------------- \ /|-2---0-2-1---0-1-0---1------------5h8p5h8p5------ \ /|-2---0-2-1---0-1-0---1--6h9p6h9p6---------------- \
|-------------------------------------------------||-------------------------------------------------||-------------------------------------------------||-------------------------------------------------||-2---0-2-1---0-1-0---1------------1h4p1h4p1------||-2---0-2-1---0-1-0---1---1h4p1h4p1---------------|
|----------------------------------------------------------------||----------------------------------------------------------------||------------------------------------------------------5h8p5h8p5-||--------------------------------------------6h9p6h9p6-----------||-2---0-2-1---0-1-0---1------------5h8p5h8p5---------------------||-2---0-2-1---0-1-0---1--6h9p6h9p6-------------------------------|
|---------------------------------------||---------------------------------------||---------------------------------------||-1-------------------------------------||-1-----~~~~ring out--------------------||-1-----------------------------00000---|
|--------------------------------------------------------------------- \|-------------------------------------------------------------- ------ \|-------------------------------------------------------------- ----- \|-------------------------------------------------------------- ---- \|-------------------------------------6h9p6h9p6h9p6------------ --- \|-3h6p3h6p3h6p3-000-2h5p2h5p2h5p2-000-------------------------- -- \
\ \ 2x|---------------------------------------------------------------------- \ /|---------------------------------------------------------------------- \ /|---------------------------------------------------------------------- \ /|---------------------------------------------------------------------- \ /|---------------------------------------------------------------------- \ /|-3h6p3h6p3h6p3-000-2h5p2h5p2h5p2-000-6h9p6h9p6h9p6-------------------- \ /
|-----------------------------------------------------------------||-----------------------------------------------------------------||-----------------------------------------------------------------||-----------------------------------------------------------------||-----------------------------------------------------------------||-------------------------------------6h9p6h9p6h9p6---------------||-3h6p3h6p3h6p3-000-2h5p2h5p2h5p2-000-----------------------------|
|-----------------------------------------------------------------||-----------------------------------------------------------------||-----------------------------------------------------------------||-----------------------------------------------------------------||---------------------------------3-2-----------------------------||-3h6p3h6p3h6p3-000-2h5p2h5p2h5p2-3-2-3*--------------------------|
|-----------------------------------------------------------------||-----------------------------------------------------------------||-----------------------------------------------------------------||-----------------------------------------------------------------||-----------------------------------------------------------------||-000-000-000-000-000-000-3h6p3h6p3-2h5p2h5p2---------------------|
(5x)|-----------------------------------------------------------------||-----------------------------------------------------------------||-----------------------------------------------------------------||-----------------------------------------------------------------||------------------------------------6h9p6h9p6--------------------||-000-000-000-000-000-000-3h6p3h6p3-------------------------------|
|---------------------------||---------------------------||-------4*------------------||----------------3*---4--1--||-3--------2----------4--1--||---3-2------3-2------4--1--|
(2x)|-----------------------------------------||-----------------------------------------||-----------------------------------------||-33333333-2222-6666-555555555------------||-3--------2----6----5---------6666-------||-3--------2----6----5--------------8888--|
|-------------------------------------------||-------------------------------------------||-------------------------------------------||-------------------------------------------||-------------------------------------------||-3333333333333-6666-555555555-111111111----|
|----------------------------------------------||----------------------------------------------||----------------------------------------------||--------------------------------------1\4-----||--------------------------------------1\4-----||-3333333333333-6666-555555555-1111----1\4-----|
(4x fast then 4x slow)<=============================>|----------------------------- |--------------||----------------------------- |--------------||-------3--------------------- |--------------||-------x--------------------- |--------------||-4--3--1--2--1--0--1-1-1-3--- |-3------3---5-||-4--3-----2--1--0--0-2-3-5--- |-5------2---7-|
|------------------------------------------------------||------------------------------------------------------||------------------------------------------------------||---------2---4--5--4---1------1--1--2--1--1--2--------||--3------2---4--5--4---1------1--1--2--1--1--2--------||--5------2---4--5--4---1------1--1--2--1--1--2--1111--|
|------------------------------------------------------||------------------------------------------------------||------------------------------------------------------||---------2---4--5--4---1------1--1--2--1--1--2--------||--3------2---4--5--4---1------1--1--2--1--1--2--4444--||--5------2---4--5--4---1------1--1--2--1--1--2--------|
(2x)|------------------------------------------------------||------------------------------------------------------||------------------------------------------------------||------------------------------------------------------||--3-3-3-3-444--3-3-3-3-444--3-3-3-3-336633------------||--5-5-5-5------5-5-5-5------5-5-5-5-------------------|
(2x)|-----------------------------------------------------||-----------------------------------------------------||-----------------------------------------------------||-----------------------------------------------------||-1-1-1-1-111--1-1-1-1-111--1-1-1-1-8877--------------||-0-0-0-0------0-0-0-0------0-0-0-0-------------------|
|-----------------------------------||-----------------------------------||-----------------------------------||--8-----------7-----------0--------||--8-----------7-----------0--------||--8-----------7-----------0--------|
Hoped you enjoyed.
Tap to rate this tab
 
# A B C D E F G H I J K L M N O P Q R S T U V W X Y Z