Anonymous - Salvem El Mon Lets Save The World tab

Anonymous - salvem el món (let's save the world)

Tabbed by: Eino Kolppanen, Finland
Tuning: Guitar 1 standart Distortion
        Guitar 2 standart Clean
        Guitar 3 standart Distortion

well, my first tab i hope you like it.
This song kicks ass! shame it didn't make to the finals in eurovision.
~ = hold the note

Intro guitar 2|------------7--7--7-||---9---9------------||-9---9----9--9--9---| |--------------------||--------------------||--------------------|
Continued intro
guitar 1|------------------------------------------------||------------------------------------------------||-9-9--9-9-9-------------------------------------||-9-9--9-9-9--9-9--9-9-9--6-6--6-6-6--7-7--7-7-7-||-7-7--7-7-7--9-9--9-9-9--6-6--6-6-6--7-7--7-7-7-||-------------7-7--7-7-7--4-4--4-4-4--5-5--5-5-5-|
|------------------------------------------------||------------------------------------------------||-9-9--9-9-9-------------------------------------||-9-9--9-9-9--9-9--9-9-9--6-6--6-6-6--6-6--6-6-6-||-7-7--7-7-7--9-9--9-9-9--6-6--6-6-6--6-6--6-6-6-||-------------7-7--7-7-7--4-4--4-4-4--4-4--4-4-4-|
Guitar 2|-----------7--7--7--||---9---9------------||-9---9----9--9--9---| |--------------------| x4|--------------------||--------------------|
Guitar 3|---------------------------------------------------||---------------------------------------------------||-9-9--9-9-9----------------------------------------||-x-x--x-x-x---9-9--9-9-9--6-6--6-6-6--7-7--7-7-7---||-7-7--7-7-7---x-x--x-x-x--x-x--x-x-x--x-x--x-x-x---||--------------7-7--7-7-7--4-4--4-4-4--5-5--5-5-5---|
Verse
Guitar 1|---------------------------||---------------------------||-9-9-----------------------||-9-9---9-9----6-6---7-7----| x2|-7-7---9-9----6-6---7-7----||-------7-7----4-4---5-5----|
Guitar 2|----7---7---7---7---7---7---7---7----| (start when guitar 1 & 3 have played one time)|-------------------------------------||--9---9---9---9---9---9---9---9------||-------------------------------------||-------------------------------------||-------------------------------------|
Guitar 3|---------------------||---------------------||-9-9-----------------||-x-x--9-9--6-6--7-7--| x2|-7-7--x-x--x-x--x-x--||------7-7--4-4--5-5--|
Prechorus
Guitar 1 |--------|--------|--------|--------| |--------|--------|--------|--------| |-9-9--9-|--------|--------|--------| |-9-9--9-|-9-9--9-|-6-6--6-|-7-7--7-| x2|-7-7--7-|-9-9--9-|-6-6--6-|-7-7--7-| |--------|-7-7--7-|-4-4--4-|-5-5--5-| . . . . . . . . . . . . x4 x4 x4 x4
Guitar 2|---------------7---7---7---------||---9---9---9---------------------||-9---9---9---9---9---9-----------| |---------------------------------| x2 start when guitar 1 and 3 have played once|---------------------------------||---------------------------------|
Guitar 3 |--------|-------|--------|--------| |--------|-------|--------|--------||--------|-------|--------|--------| |--------|-------|--------|--------| |-9-9--9-|-------|--------|--------| |-9-9--9-|-------|--------|--------||-x-x--x-|-9-9--9|-6-6--6-|-7-7--7-| |-x-x--x-|-9-9--9|-6-6--6-|-7-7--7-| |-7-7--7-|-x-x--x|-x-x--x-|-x-x--x-| |-7-7--7-|-x-x--x|-x-x--x-|-x-x--x-||--------|-7-7--7|-4-4--4-|-5-5--5-| |--------|-7-7--7|-4-4--4-|-5-5--5-| . . . . . . . . . . . . x4 x4 x4 x4 x4 x4 x4 x4
Guitar 1 Guitar 3|-----| |------||-----| |------||-----| |------||7~---| |7~----||7~---| |x~----||5~---| |5~----|
Chorus x2
guitar 1 |------------------------------------------------||------------------------------------------------||-9-9--9-9-9-------------------------------------||-9-9--9-9-9--9-9--9-9-9--6-6--6-6-6--7-7--7-7-7-||-7-7--7-7-7--9-9--9-9-9--6-6--6-6-6--7-7--7-7-7-||-------------7-7--7-7-7--4-4--4-4-4--5-5--5-5-5-|
|------------------------------------------------||------------------------------------------------||-9-9--9-9-9-------------------------------------||-9-9--9-9-9--9-9--9-9-9--6-6--6-6-6--6-6--6-6-6-||-7-7--7-7-7--9-9--9-9-9--6-6--6-6-6--6-6--6-6-6-||-------------7-7--7-7-7--4-4--4-4-4--4-4--4-4-4-|
Guitar 2|-----------7--7--7--||---9---9------------||-9---9----9--9--9---| |--------------------| x4 (notice that chorus goes twice)|--------------------||--------------------|
Guitar 3|------------------------------------------------||------------------------------------------------||-9-9--9-9-9-------------------------------------||-x-x--x-x-x--9-9--9-9-9--6-6--6-6-6--7-7--7-7-7-||-7-7--7-7-7--x-x--x-x-x--x-x--x-x-x--x-x--x-x-x-||-------------7-7--7-7-7--4-4--4-4-4--5-5--5-5-5-|
|------------------------------------------------||------------------------------------------------||-9-9--9-9-9-------------------------------------||-x-x--x-x-x--9-9--9-9-9--6-6--6-6-6--6-6--6-6-6-||-7-7--7-7-7--x-x--x-x-x--x-x--x-x-x--x-x--x-x-x-||-------------7-7--7-7-7--4-4--4-4-4--4-4--4-4-4-|
Chorus continued
|------------------------------------------------||------------------------------------------------||-9-9--9-9-9-------------------------------------||-9-9--9-9-9--9-9--9-9-9--6-6--6-6-6--7-7--7-7-7-||-7-7--7-7-7--9-9--9-9-9--6-6--6-6-6--7-7--7-7-7-||-------------7-7--7-7-7--4-4--4-4-4--5-5--5-5-5-|
|------------------------------------------------||------------------------------------------------||-9-9--9-9-9-------------------------------------||-9-9--9-9-9--9-9--9-9-9--6-6--6-6-6--6-6--6-6-6-||-7-7--7-7-7--9-9--9-9-9--6-6--6-6-6--6-6--6-6-6-||-------------7-7--7-7-7--4-4--4-4-4--4-4--4-4-4-|
Guitar 2|-----------7--7--7--||---9---9------------||-9---9----9--9--9---| |--------------------| x4|--------------------||--------------------|
Guitar 3|------------------------------------------------||------------------------------------------------||-9-9--9-9-9-------------------------------------||-x-x--x-x-x--9-9--9-9-9--6-6--6-6-6--7-7--7-7-7-||-7-7--7-7-7--x-x--x-x-x--x-x--x-x-x--x-x--x-x-x-||-------------7-7--7-7-7--4-4--4-4-4--5-5--5-5-5-|
|------------------------------------------------||------------------------------------------------||-9-9--9-9-9-------------------------------------||-x-x--x-x-x--9-9--9-9-9--6-6--6-6-6--6-6--6-6-6-||-7-7--7-7-7--x-x--x-x-x--x-x--x-x-x--x-x--x-x-x-||-------------7-7--7-7-7--4-4--4-4-4--4-4--4-4-4-|
Verse
Guitar 1|---------------------------||---------------------------||-9-9-----------------------||-9-9---9-9----6-6---7-7----| x2|-7-7---9-9----6-6---7-7----||-------7-7----4-4---5-5----|
Guitar 2|----7---7---7---7---7---7---7---7----| (start when guitar 1 & 3 have played one time)|-------------------------------------||--9---9---9---9---9---9---9---9------||-------------------------------------||-------------------------------------||-------------------------------------|
Guitar 3|---------------------||---------------------||-9-9-----------------||-x-x--9-9--6-6--7-7--| x2|-7-7--x-x--x-x--x-x--||------7-7--4-4--5-5--|
Prechorus
Guitar 1 |--------|--------|--------|--------||--------|--------|--------|--------||-9-9--9-|--------|--------|--------||-9-9--9-|-9-9--9-|-6-6--6-|-7-7--7-||-7-7--7-|-9-9--9-|-6-6--6-|-7-7--7-||--------|-7-7--7-|-4-4--4-|-5-5--5-| . . . . . . . . . . . . x4 x4 x4 x4
Guitar 2|---------------------------------||---9---9---9---------------------||-9---9---9-----------------------| |---------------------------------| x2|---------------------------------||---------------------------------|
Guitar 3 |--------|-------|--------|--------||--------|-------|--------|--------||-9-9--9-|-------|--------|--------||-x-x--x-|-9-9--9|-6-6--6-|-7-7--7-||-7-7--7-|-x-x--x|-x-x--x-|-x-x--x-||--------|-7-7--7|-4-4--4-|-5-5--5-| . . . . . . . . x4 x4 x4 x4
Guitar 1 Guitar 3|-----| |------||-----| |------||-----| |------||7~---| |7~----||7~---| |x~----||5~---| |5~----|
Chorus x2
guitar 1 |------------------------------------------------||------------------------------------------------||-9-9--9-9-9-------------------------------------||-9-9--9-9-9--9-9--9-9-9--6-6--6-6-6--7-7--7-7-7-||-7-7--7-7-7--9-9--9-9-9--6-6--6-6-6--7-7--7-7-7-||-------------7-7--7-7-7--4-4--4-4-4--5-5--5-5-5-|
|------------------------------------------------||------------------------------------------------||-9-9--9-9-9-------------------------------------||-9-9--9-9-9--9-9--9-9-9--6-6--6-6-6--6-6--6-6-6-||-7-7--7-7-7--9-9--9-9-9--6-6--6-6-6--6-6--6-6-6-||-------------7-7--7-7-7--4-4--4-4-4--4-4--4-4-4-|
Guitar 2|-----------7--7--7--||---9---9------------||-9---9----9--9--9---| |--------------------| x4 (notice that chorus goes twice)|--------------------||--------------------|
Guitar 3|------------------------------------------------||------------------------------------------------||-9-9--9-9-9-------------------------------------||-x-x--x-x-x--9-9--9-9-9--6-6--6-6-6--7-7--7-7-7-||-7-7--7-7-7--x-x--x-x-x--x-x--x-x-x--x-x--x-x-x-||-------------7-7--7-7-7--4-4--4-4-4--5-5--5-5-5-|
|------------------------------------------------||------------------------------------------------||-9-9--9-9-9-------------------------------------||-x-x--x-x-x--9-9--9-9-9--6-6--6-6-6--6-6--6-6-6-||-7-7--7-7-7--x-x--x-x-x--x-x--x-x-x--x-x--x-x-x-||-------------7-7--7-7-7--4-4--4-4-4--4-4--4-4-4-|
Solo
Guitar 2 Guitar 1 & 3 after solo do a pickslide|---------------------| |--------------------------------------||---------------------| |--------------------------------------||-----9-------9-------| |--------------------------------------||---9---9---9---9-----| x4 |-//////////////-----------------------||-7-------6-----------| |-/////////////------------------------||---------------------| |--------------------------------------|
Chorus x4
guitar 1 |------------------------------------------------||------------------------------------------------||-9-9--9-9-9-------------------------------------||-9-9--9-9-9--9-9--9-9-9--6-6--6-6-6--7-7--7-7-7-||-7-7--7-7-7--9-9--9-9-9--6-6--6-6-6--7-7--7-7-7-||-------------7-7--7-7-7--4-4--4-4-4--5-5--5-5-5-|
|------------------------------------------------||------------------------------------------------||-9-9--9-9-9-------------------------------------||-9-9--9-9-9--9-9--9-9-9--6-6--6-6-6--6-6--6-6-6-||-7-7--7-7-7--9-9--9-9-9--6-6--6-6-6--6-6--6-6-6-||-------------7-7--7-7-7--4-4--4-4-4--4-4--4-4-4-| last time let it ring
Guitar 2|-----------7--7--7--||---9---9------------||-9---9----9--9--9---| |--------------------| x4 (notice that chorus goes 4 times)|--------------------||--------------------|
Guitar 3|------------------------------------------------||------------------------------------------------||-9-9--9-9-9-------------------------------------||-x-x--x-x-x--9-9--9-9-9--6-6--6-6-6--7-7--7-7-7-||-7-7--7-7-7--x-x--x-x-x--x-x--x-x-x--x-x--x-x-x-||-------------7-7--7-7-7--4-4--4-4-4--5-5--5-5-5-|
|------------------------------------------------||------------------------------------------------||-9-9--9-9-9-------------------------------------||-x-x--x-x-x--9-9--9-9-9--6-6--6-6-6--6-6--6-6-6-||-7-7--7-7-7--x-x--x-x-x--x-x--x-x-x--x-x--x-x-x-||-------------7-7--7-7-7--4-4--4-4-4--4-4--4-4-4-| last time let it ring
Ending onGuitar 1 Guitar 3|--------| |--------||--------| |--------||--------| |--------||-6------| |-6------||-6------| |-x------||-4------| |-4------|
I hope there are not many mistakes, please rate :) PM me if you have proplem.
Tap to rate this tab
 
# A B C D E F G H I J K L M N O P Q R S T U V W X Y Z