Anouk - If I Go Live tab

Hi all,
Becouse live singing is harder than recording, they tuned the guitar a half step down to 
Anouk's voice. I've transposed it back to normal tuning, just to make it easier for new guitarists.

Standard tuning, 
Tone on full, with distortion. If possible, switch to the pickup closest to the neck.
Most of it is rhythm guitar, the Pre- chorus is Lead. I couldn't figure out the lead 
in between the 2nd and 3rd chorus.


Verse|-----------------------||-----------------------||------------6-4--------||------------6-4--------||----4-6-6-4------------||----4-6-6-4------------|
Pre- chorus|-----------------------| |-----------4-4-6-6----|)|---2-4-2-4-2-4-2-4-----| |---2-4-4-4------------|)|-----------------------| 3x, then |----------------------|)|-----------------------| |----------------------|)|-----------------------| |----------------------|)|-----------------------| |----------------------|)( partially palm muted )
play 3 times, then |----------------------| |---2-4-2-4-2-4-4------| |----------------------| |----------------------| |----------------------| |----------------------|
Chorus
Part I|-------------------|-------------------||-------------------|-------------------||-------------------|-------------------||--9-9-9-9-9-9-9-8--|--6-6-6-6-6-6-6-6--||--9-9-9-9-9-9-9-8--|--6-6-6-6-6-6-6-6--||-------------------|-------------------|
|-------------------|-------------------||-------------------|-------------------||----------6-4---4--|----------6-4---4--||----------6-4---4--|----------6-4---4--||--4-6-6-4----------|--4-6-6-4----------||--4-6-6-4----------|--4-6-6-4----------|
|-------------------|-------------------||-------------------|-------------------||-------------------|-------------------||--9-9-9-9-9-9-9-8--|--6-6-6-6-6-6-6-6--||--9-9-9-9-9-9-9-8--|--6-6-6-6-6-6-6-6--||-------------------|-------------------|
|-------------------|-------------------||-------------------|-------------------||-------------------|-------------------||-------------------|-------------------||--6-6-6-6-6-6-6-8--|--9-9-9-9-9-9-9-9--||--6-6-6-6-6-6-6-8--|--9-9-9-9-9-9-9-9--|
------------------------------------------------------ Part II
|-------------------|-------------------||-------------------|-------------------||-------------------|-------------------||--9-9-9-9-9-9-9-8--|--6-6-6-6-6-6-6-6--||--9-9-9-9-9-9-9-8--|--6-6-6-6-6-6-6-6--||-------------------|-------------------|
|-------------------|-------------------||-------------------|-------------------||----------6-4---4--|----------6-4---4--||----------6-4---4--|----------6-4---4--||--4-6-6-4----------|--4-6-6-4----------||--4-6-6-4----------|--4-6-6-4----------|
|-------------------|-------------------||-------------------|-------------------||-------------------|-------------------||--9-9-9-9-9-9-9-8--|--6-6-6-6-6-6-6-6--||--9-9-9-9-9-9-9-8--|--6-6-6-6-6-6-6-6--||-------------------|-------------------|
|-------------------|-------------------||-------------------|-------------------||-------------------|-------------------||--9-9-9-9-9-9-9-8--|--6-6-6-6-6-6-6-6--||--9-9-9-9-9-9-9-8--|--6-6-6-6-6-6-6-6--||-------------------|-------------------|
|---------------------------|---------------------------||---------------------------|---------------------------||---------------------------|---------------------------||--11-11-11-11-11-11-11-11--|--10-10-10-10-10-10-10-10--||--11-11-11-11-11-11-11-11--|--10-10-10-10-10-10-10-10--||---------------------------|---------------------------|
|-------------------||-------------------||-------------------||--9-9-9-9-9-9-9-9--||--9-9-9-9-9-9-9-9--||-------------------|
Progression: Verse 20x Pre- chorus 1x Chorus 1x Verse 12x Pre-Chorus 1x Chorus I+ II 1x Chorus I 1x Chorus I+ II 1x Verse 12x Verse(muted) 8x
Tap to rate this tab
 
# A B C D E F G H I J K L M N O P Q R S T U V W X Y Z