Anti-flag – Emigre tab

Émigré
Anti-flag
Standard tuning

This is my first tab,
enjoy.

Intro:-4-4-4-4-4-4-4-4---4-4-4-4---7-7---7-7-----------|----------------------7-----------7-----7--------|-------------------------------------------------|-------------------------------------------------|-------------------------------------------------|-------------------------------------------------|P.M****************************************
First they came for the Communists, and I did not speak out. Then they came for the socialists, and I did not speak out. Next they came for the trade unionists, and I did not speak out. AND THEN THEY CAME FOR ME
-------------------------------------------------|-------------------------------------------------|-------6-6/8--4-4--------------------------------|--6-6--6-6/8--4-4--4-4---------------------------|--6-6--4-4/6--2-2--4-4---------------------------|--4-4--------------2-2---------------------------|
-------------------------------------------------|-------------------------------------------------|-------8-8/6--4-4--------------------------------|--6-6--8-8/6--4-4--4-4---------------------------|--6-6--6-6/4--2-2--4-4---------------------------|--4-4--------------2-2---------------------------| x2
Verse: This is autonomy- My American Dream Stepped over on the street - Stars and stripes blinding me Their contagious air we breath - My American Dream Classism the black plague - Will mark your grave
--------|--------|-6-6----|-6-6----|-4-4----|--------|
Chorus:This is the second time, we will not fall in line,-------------------------------------------------|-------------------------------------------------|-4~-4--6--8--9--11-13-15-16~-16-15-13-11---------|-4~-4--6--8--9--11-13-15-16~-16-15-13-11---------|-2~-2--4--6--7--9--11-13-14~-14-13-11-9----------|-------------------------------------------------|
No you can't stop this exodusNo you won't stop this exodus.No you can't stop this exodusNo you won't stop this exodus.-------------------------------------------------|-------------------------------------------------|-------6-6/8--4-4--------------------------------|--6-6--6-6/8--4-4--4-4---------------------------|--6-6--4-4/6--2-2--4-4---------------------------|--4-4--------------2-2---------------------------|
-------------------------------------------------|-------------------------------------------------|-------8-8/6--4-4--------------------------------|--6-6--8-8/6--4-4--4-4---------------------------|--6-6--6-6/4--2-2--4-4---------------------------|--4-4--------------2-2---------------------------| x2
Verse 2:
A hooded prisoner on the bay - These truths let freedom ringA child Darfur refugee - Home of the free and braveThe ghosts of war who will not sleep - These truths let freedom ringThe poor who drown in bigotry - Will mark your grave--------|--------|-6-6----|-6-6----|-4-4----|--------|
Chorus:This is the second time, yeah its the second time, we will not fall in line,-------------------------------------------------|-------------------------------------------------|-4~-4--6--8--9--11-13-15-16~-16-15-13-11---------|-4~-4--6--8--9--11-13-15-16~-16-15-13-11---------|-2~-2--4--6--7--9--11-13-14~-14-13-11-9----------|-------------------------------------------------|
No you can't stop this exodusNo you won't stop this exodus.No you can't stop this exodusNo you won't stop this exodus.-------------------------------------------------|-------------------------------------------------|-------6-6/8--4-4--------------------------------|--6-6--6-6/8--4-4--4-4---------------------------|--6-6--4-4/6--2-2--4-4---------------------------|--4-4--------------2-2---------------------------|
-------------------------------------------------|-------------------------------------------------|-------8-8/6--4-4--------------------------------|--6-6--8-8/6--4-4--4-4---------------------------|--6-6--6-6/4--2-2--4-4---------------------------|--4-4--------------2-2---------------------------| x2
Fight forever more - The movement of the people Fight forever more - The voice of the emigre Fight forever more - The movement of the people Fight forever more - No concession, no compromise
-------------------------------------------------|-------------------------------------------------|------------------------4-----6--8--4~-----------|-6-6-6-6-6-6-6-6-6------4--4--6--8--4~-----------|-6-6-6-6-6-6-6-6-6------2--4--4--6--2~-----------|-4-4-4-4-4-4-4-4-4---------2---------------------|
-------------------------------------------------|-------------------------------------------------|------------------------4-----8--6--4~-----------|-6-6-6-6-6-6-6-6-6------4--4--8--6--4~-----------|-6-6-6-6-6-6-6-6-6------2--4--6--4--2~-----------|-4-4-4-4-4-4-4-4-4---------2---------------------| x2
Outro:-4-4-4-4-4-4-4-4---4-4-4-4---7-7---7-7-----------|----------------------7-----------7-----7--------|-------------------------------------------------|-------------------------------------------------|-------------------------------------------------|-------------------------------------------------|P.M****************************************
First they came for the Communists, and I did not speak out. Then they came for the socialists, and I did not speak out. Next they came for the trade unionists, and I did not speak out. AND THEN THEY CAME FOR ME
No you can't stop this exodusNo you won't stop this exodus.No you can't stop this exodusNo you won't stop this exodus.-------------------------------------------------|-------------------------------------------------|-------6-6/8--4-4--------------------------------|--6-6--6-6/8--4-4--4-4---------------------------|--6-6--4-4/6--2-2--4-4---------------------------|--4-4--------------2-2---------------------------|
-------------------------------------------------|-------------------------------------------------|-------8-8/6--4-4--------------------------------|--6-6--8-8/6--4-4--4-4---------------------------|--6-6--6-6/4--2-2--4-4---------------------------|--4-4--------------2-2---------------------------| x2
This is the second time, we will not fall in line! Email me at distorted620@gmail.com
Please rate this tab:
x1.0