Antonio Cano - Estudio Cano tab

Estudio Cano - Antonio Cano (1811-1897)


E||------------------||---------------------------|--------------------------|B||--------3------1--||---0-----------0-----------|--1--------0--1--------2--|G||------------------||*--------0-----------0-----|--------2-----------2-----|D||------------------||*-----0-----0-----0-----0--|-----0-----------0--------|A||------------------||---------------------------|--------------------------|E||------------------||---3-----------------------|--------------3-----------|
--------------------------|--------------3--------2--|--3-----------0-----------|--------------------1-----|--------0-----------0-----|--------0--------0--------|-----0-----0-----0-----0--|-----0-----0--------------|--------------------------|--------------------------|--3-----------------------|--3-----------------------|
--0-----------------------|--------------3--------0--|--------1-----------1-----|--------1-----------1-----|-----0-----0-----0-----0--|-----0-----0-----0--------|--------------2-----------|--------------------------|--3-----------------------|--------------------------|--------------------------|--0-----------------------|
--------------3-----------|--------------------------|--3-----------------------|--------------0--------0--|--------0-----------0-----|--------0-----------0-----|-----0-----0-----0-----0--|-----0-----0-----0--------|--------------------------|--------------------------|--3-----------------------|--3-----------------------|
--------------------------|--------------2--------2--|--0-----------0-----------|--------------------------|--------2-----------2-----|--------2-----------2-----|-----1-----1-----1-----1--|-----1-----1-----4--------|--2-----------------------|--------------------------|--------------------------|--0-----------------------|
--5-----------3-----------|--------------2--------0--|--------0-----------0-----|--------1-----------1-----|-----0-----0-----0-----0--|-----2-----2-----2--------|--------------------------|--0-----------------------|--------------------------|--------------------------|--0-----------------------|--------------------------|
--------------3-----------|--3--------2--0--------2--|--3-----------------------|--------1-----------1-----|--------0-----------0-----|-----2-----------2--------|-----0-----0-----0-----0--|--------------------------|--------------------------|--------------3-----------|--3-----------------------|--------------------------|
--3-----------------------|----------------------||---------------------|--------------0-----------|-----------3------1---||-----------3------3--|-----------0-----0--------|---------------------*||---------------------|--------0-----------0-----|---------------------*||---------------------|-----2-----------------2--|----------------------||---------------------|--3-----------------------|--3-------------------||--3------------------|
--------------5-----------|--------------------------|--3-----------------------|--------------3--------3--|--------5-----------5-----|--------5-----------5-----|-----4-----4-----4-----4--|-----4-----4-----4--------|--0-----------------------|--0-----------0-----------|--------------------------|--------------------------|
--------------3-----------|--------------------------|--3-----------------0-----|--------0-----3--------3--|--------0--------0-----0--|-----0-----0--------0-----|-----0-----0--------------|-----------------0--------|--------------------------|--------------------------|--3-----------------------|--3-----------------------|
--5-----------5-----------|--------------0--------2--|--------3-----------3-----|--------1-----------1-----|-----5-----5-----5-----5--|-----2-----2-----2--------|--0-----------------------|--0-----------------------|--------------------------|--------------------------|--------------------------|--------------------------|
--3-----------------------|--------------------------|--------------3-----------|--------------3--------3--|--------0-----------0-----|--------0-----------0-----|-----0-----0-----0-----0--|-----0-----0-----0--------|--2-----------------------|--------------------------|--------------------------|--3-----------------------|
--------------------------|--0-----------2-----------|--3-----------4-----------|--------1-----------1-----|--------4-----------4-----|-----2-----2-----2-----2--|-----5-----5-----5-----5--|--------------------------|--------------------------|--0-----------------------|--3-----------------------|--------------------------|
--5--------3--------------|-----------------------0--|--------0-----3-----------|--------------1-----1-----|-----0--------------0-----|--------0--------2--------|-----------------0-----0--|-----0-----0--------------|--0-----------------------|--2-----------0-----------|--------------------------|--3-----------------------|
--------------3-----------|--3--------2--0--------2--|--3-----------------------|--------1-----------1-----|--------0-----------0-----|-----2-----------2--------|-----0-----0-----0-----0--|--------------------------|--------------2-----------|--------------3-----------|--3-----------------------|--3-----------------------|
--3-----------------------|---------------------|--------------------------|--------------0-----------|-----------3------1--|--0-----------0-----------|-----------0-----0--------|---------------------|--------0-----------0-----|--------0-----------0-----|---------------------|-----0-----0-----0-----0--|-----2-----------------2--|---------------------|--------------------------|--3-----------------------|--3------------------|--3-----------------------|
--------------------------|--------------------------|--1--------0--1--------2--|--3-----------0-----------|--------2-----------2-----|--------0-----------0-----|-----0-----------0--------|-----0-----0-----0-----0--|--------------------------|--------------------------|--------------3-----------|--3-----------------------|
--------------3--------2--|--0-----------------------|--------------------1-----|--------1-----------1-----|--------0--------0--------|-----0-----0-----0-----0--|-----0-----0--------------|--------------2-----------|--------------------------|--3-----------------------|--3-----------------------|--------------------------|
--------------3--------0--|--------------3-----------|--------1-----------1-----|--3-----------------------|-----0-----0-----0--------|--------0-----------0-----|--------------------------|-----0-----0-----0-----0--|--------------------------|--------------------------|--0-----------------------|--3-----------------------|
--------------------------|--------------------------|--------------0--------0--|--0-----------0-----------|--------0-----------0-----|--------2-----------2-----|-----0-----0-----0--------|-----1-----1-----1-----1--|--------------------------|--2-----------------------|--3-----------------------|--------------------------|
--------------2--------2--|--5-----------3-----------|--------------------------|--------0-----------0-----|--------2-----------------|-----0-----0-----0-----0--|-----1-----1--------4-----|--------------------------|-----------------0--------|--------------------------|--0-----------------------|--0-----------------------|
--------------2--------0--|--------------3-----------|--------1-----------1-----|--3-----------------------|-----2-----2-----2--------|--------0-----------0-----|--0-----------------------|-----0-----0-----0-----0--|--------------------------|--------------------------|--------------------------|--3-----------------------|
--3--------2--0--------2--|--3-----------------------|--------1-----------1-----|--------------0-----------|-----2-----------2--------|-----------0-----0--------|--------------------------|--------0-----------0-----|--------------3-----------|-----2-----------------2--|--------------------------|--3-----------------------|
--3----------------|------||--0----------------|------||--0----------------|------||--0----------------|------||--2----------------|------||--3----------------|------||
Tap to rate this tab
 
# A B C D E F G H I J K L M N O P Q R S T U V W X Y Z