Antonio Lauro - Virgilio Bambuco Tachirense tab

Virgilio (Bambuco Tachirense) - Antonio Lauro (1917-1986)

Transcribed by ocajinoj

3/4 6/8 3/4 6/8||--5----------|---1-0------|-0----------|-----------0-|||-------5-----|---3-1-3-1--|-0----3-----|---------0---|||*-5----5-----|-------4-2--|--------4---|-------1-----|||*------7-----|------------|-2--2-----2-|-----0-------|||--0--7-----7-|-0----------|------------|---2---------|||---------0---|---------0--|-4----------|-0-----------|
|-^7----------|------------|------------|-----------0--||-^0----9---0-|---3-5-6-5--|-3----1-----|---1---3------||-^7------7---|---4-5-7-5--|-4------2---|-2---1---0----||-^6----------|------------|----2-----2-|--------------||-^7--7-------|------------|-0----------|-3---2---1----||-^0----------|-0-------0--|------------|--------------|
|-5----0-----|---3-5-6-5--|-3----1-----|-----0-1-----||-2------2---|---5-6-8-6--|-5----3-----|---3-----3---||-2--------0-|------------|----2-----2-|---2---------||----2-------|------------|-0----------|-0-----------||-0----------|-0-------0--|--------0---|-------------||------------|------------|------------|-------------|
1.___________ 2.____________|-0-5p0------|---------|------------|---------0---||------------|||-------1----|-1---0---|------1-----|-------1-----||---2--2-3---|||---------2--|-2---1---|-2----------|-----2------*||---2--2-4---|||------------|-1---0---|-2--2-----2-|---2--------*||------------|||------------|---------|-3----------|-0-----------||-0----------|||-0----------|-0---0---|-5------0---|-------------||--------0---||
||--0----0-----|-----0-5-7--|--------------|---7---7-5--|||-------2-----|---2-2-7-9--|-^10----9-----|---9---9-7--|||*------------|---2--------|-^-7------7---|------------|||*----2-----2-|------------|-^-9--------9-|-----0------|||--0----------|-0----------|-^-7--7-------|------------|||---------0---|------------|-^-7----------|-0-------7--|
|-5----4-----|---2-4-5-4--|-2----0-----|-----------||-7----3-----|---3-5-7-5--|-3------2---|---2--2-3--||----4-------|------------|----------2-|---2--2-4--||--------0---|------------|----2-------|-----------||-7--------2-|------------|-0----------|-----------||------------|-0-------0--|------------|-0---------|
|-0---0---|-----2--3--2---|-0-------------|-----0---5--||-2---0---|---5-----------|--------3------|---3---6----||-2---0---|---3-----------|-----------4---|---2--------||---------|---------------|---3-4-------4-|-0----------||-0-------|---------------|-2-------------|------------||-----3---|-2-----------2-|---------------|------------|
1._________________________________________________|-0----------|-------------|-----------|------------|||-------2-3--|-2-----0-----|-----------|---2--2-3---|||------------|-------0-----|-2---------|---2--2-4--*|||---1h2---4--|---2-1-0h2p0-|-2--2------|-----------*|||------------|-------------|-4----4----|-0----------|||-0----------|-0-----0-----|-5------0--|--------0---||
2.___________________________________________________ |-0----------|-------------|------------|----------0--|||-------2-3--|-2-----0-----|------2-----|--------1----|||------------|-------0-----|-2----------|------2------|||---1h2---4--|---2-1-0h2p0-|-2--2-----2-|----2--------|||------------|-------------|-4----------|-0-----------|||-0----------|-0-----0-----|-5------0---|-------------||
|-5----------|---1-0------|-0----------|-----------0-||------5-----|---3-1-3-1--|-0----3-0---|---------0---||-5----5-----|-------4-2--|------------|-------1-----||------7-----|------------|-2--2-----2-|-----0-------||-0--7-----7-|-0----------|------------|---2---------||--------0---|---------0--|-4----------|-0-----------|
|-^7----------|------------|------------|-----------0--||-^0----9---0-|---3-5-6-5--|-3----1-----|---1---3------||-^7------7---|---4-5-7-5--|-4------2---|-2---1---0----||-^6----------|------------|----2-----2-|--------------||-^7--7-------|------------|-0----------|-3---2---1----||-^0----------|-0-------0--|------------|--------------|
|-5----0-----|---3-5-6-5--|-3----1-----|-----0-1------||-2------2---|---5-6-8-6--|-5----3-----|---3-----3----||-2--------0-|------------|----2-----2-|---2-------2--||----2-------|------------|-0----------|-0------------||-0----------|-0-------0--|--------0---|--------------||------------|------------|------------|--------------|
|-0-5p0-------|---------|---------||-^3------|--3p0--------||-------1-----|-1---0---|---------||-^3------|------1------||---------2---|-2---1---|-2-------||-^4------|--------0----||-----------2-|-1---0---|-2-------||-^3------|----------2--||-------------|---------|-3-------||-^5------|-------------||-0-----------|-0---0---|-5---4---||-^3------|-------------|
||-------------|------------|------------|---5---------|||-------------|-------1-3--|-1----0-----|-----6---0---|||*-2----0-----|-----0------|-0------0---|-------7---0-|||*----2-----2-|---2--------|-3--3-----3-|-0-----------|||--3----------|-3----------|-5----------|-------------|||---------3---|------------|------------|-------------|
|------------|------------|--0----------|---3p0--------||------------|-----0-3-4--|-^1----------|-------1------||-2----0-----|---0-----0--|-^0--------0-|---------0----||-3--3-----0-|---3-----3--|-^2----2-----|-----------2--||--------2---|------------|-^3----------|-3------------||-3----------|-3-------3--|-----0---3---|--------------|
|------------|-------0-3--|-3----1-----|---1-3-4-1---||------------|-----2---2--|-5----3-----|---1---------||-2----0-----|---2--------|----2-----2-|---1---------||----2-------|------------|-0----------|-0-----------||-3------2-1-|-0-------0--|--------0---|-------------||------------|------------|------------|-------------|
D.C. al Fine 1.____________ 2.__________|---3-0------|-----------|------0-----|---3p0--------||-----0-----|||-------1----|---1--0-3--|-1----------|-------1------||-----3-----|||---------0--|-2----0----|-0--0-----0-|---------0---*||-----1-----|||------------|-0----3----|-2----------|-----------2-*||-----2-----|||------------|-----------|-3----------|-3------------||-3---2-----|||-3----------|-2----3----|--------3---|--------------||-----0-----||
Tap to rate this tab
 
# A B C D E F G H I J K L M N O P Q R S T U V W X Y Z