Antonio Lauro – Venezuelan Suite - No 4 - Vals tab

Suite Venezolana IV, Vals - Antonio Lauro (1917-1986)

||--0--------|---9-----7-|----------|---6-----3-|-----------|||------2----|-----8-----|-6--------|-----5-----|-2---5-----|||*----------|-----8-----|-6--------|-----5-----|-2-----3---|||*-------1--|-----------|-----7----|-----------|-------4---|||--0--------|-----------|-0-----8--|-----------|-0---------|||-----------|-0---------|----------|-3---------|-----------|
|----------|---------------|-5h7-8-9-10-11-|-<12>--------|---9-----7--||--3-----1-|-0h1--3--5-6h8-|---------------|--------2----|-----8------||-----0----|-2-------------|---------------|-------------|-----8------||-----1----|-3-------------|---------------|----------1--|------------||----------|---------------|---------------|---0---------|------------||----------|-0-------------|---------------|-------------|-0----------|
|------------|---10-8---10-|-6---8-6--|---8-6---8-|-3---5-3---||-6----------|------8------|-8-----8--|-----8-----|-5-----5---||-6----------|------8------|-6-----6--|-----6-----|-3-----3---||-----8------|-------------|----------|-----------|-0---------||--------9---|-8-----------|-6--------|-0---------|-----------||-6----------|-------------|----------|-----------|-----------|
|---5-3---5-|-0----------|-5-------7---|-----7--------|--------------||-----5-----|----0-----3-|-------5-----|---4---7---10-|-----10----8--||-----3-----|----0-------|-------------|--------------|---7----------||-----------|------0-----|-------------|---------6----|--------------||-3---------|-4------2---|---4-0-------|--------------|-8-------6----||-----------|------------|-----------7-|-4------------|--------------|
|-----------|---0---------5-|-----------|---0---------5-|-10-------------8---||---3--3-3--|-3---3--0------|---5--5-5--|-5---3---------|--------7h==8-------||---5--5-5--|-5-------------|---5--5-5--|-5------3------|----7h8-------------||---4--4-4--|-4---------2---|---4--4-4--|-4---------2---|--0-----------------||-0---------|-0-------------|-0---------|-0-------------|--------------------||--------0--|---------------|--------0--|---------------|--------------------|
|-6h8-7--------|------------------|-------------|-----6-----4-|-----4-----2--||-6-----8------|-10-------------8-|-6-8-6-------|-----4-----4-|-----2-----2--||-6-------8----|--8----------9----|-6-----6-----|---6-----4---|---4-----2----||-----------10-|--8------8--------|-6-------8p6-|-5-----4-----|-3-----2------||-6------------|--8h9-10----------|-------------|-------------|--------------||--------------|------------------|-6-----------|-------------|--------------|
|------------|-------------|-------------|-7-----0-5-----0-|-7-----0-5-----0--||------------|---0---0---0-|---0---0---0-|-7-----0-5-----0-|-7-----0-5-----0--||------------|-------------|-------------|-7-----0-5-----0-|-7-----0-5-----0--||--------5h7-|-9---9---9---|-9---9---9---|----9-------9----|----9-------9-----||-6h7-9------|-------------|-------------|-----------------|------------------||------------|-------------|-------------|-7-----0-5-----0-|-7-----0-5-----0--|
|-7-----------|-------------|-5-----0-3-----0-|-5-----0-3-----0-|-5-----------||-7---0-----0-|---0---0---0-|-5-----0-3-----0-|-5-----0-3-----0-|-------------||-7-----------|-------------|-5-----0-3-----0-|-5-----0-3-----0-|-5-----------||---9---9-7---|-6-------6---|----7-------7----|----7-------7----|-7--6h7---7--||-------------|-----9-------|-----------------|-----------------|-0------9----||-7-----------|-------------|-5-----0-3-----0-|-5-----0-3-----0-|-------------|
|-------------|-------0-----|-----0-------0-|-----0-------|--0--------0----||-------------|-----0-------|--0--------0---|-----------0-|---------0------||-------------|---0-------0-|---------0-----|---0---------|----------------||---7---7---7-|-------------|-----------7---|-------------|----------------||-8---6---8---|-9-----------|-------9-------|-9-----7-5---|-----4-3-----2--||-------------|---------7---|---------------|-------------|----------------|
|-------------|-----0---3---|-0-----------|-----0---3---|-7-------0----||---------0---|-------------|---------0---|-------------|-------8------||-------2-----|---2-------2-|-------2-----|---2-------2-|-----7--------||-----0-------|-0-----0-----|-----0-------|-0-----0-----|---9-------9--||---3-------3-|-------------|---3-------3-|-------------|--------------||-1-----------|-------------|-1-----------|-------------|-0------------|
|-----7---10---|-7-------0---|-----7---10---||---8--------8-|-------8-----|---8--------8-||-7-----7------|-----7-------|-7-----7------||--------------|---9-------9-|--------------||--------------|-------------|--------------||--------------|-0-----------|--------------|
|-12-------10-------|------------------|||-------10----12h13-|-10h12-8h10-7h8---|||----10-------------|-----------------*|||--0----------------|-----------------*|||-------------------|------------------|||-------------------|------------------||
|-0-------------|-------------|-----------|---0-------0-|------------||--------3--1h3-|-0h1---------|-----------|-----3-------|-0----------||-----2---------|-----2h4-0h2-|---2--2-2--|-2-2---2-2---|---2--2-2---||---3-----------|-------------|---0--0-0--|-0-0---0-0---|---0--0-0---||-0-------------|-------------|-----------|-------------|------------||---------------|-------------|-1---------|-------------|-1----------|
|---0-------0-|-----------|---0-------0-|--------0------0-|--------0------0--||-----3-------|-0---------|-----3-------|-0---------3-----|-0---------3------||-2-2---2-2---|-1-1--1-1--|-1-1---1-1---|----1--------1---|----1--------1----||-0-0---0-0---|-4-4--4-4--|-4-4---4-4---|-----------------|------------------||-------------|-----------|-------------|-------------2---|-------------2----||-------------|-0---------|-------------|-0---------------|-0----------------|
|---------------|-----------|--------------|-----------|-0-------------||-0-------------|-----0-----|-0------------|-----0-----|----------3----||----0-------0--|---------2-|----------2---|---------2-|----------0----||---------4-----|---0-------|----------0---|---0-------|----------4----||------------2--|-----------|------3-------|-----------|------2--------||-0-------------|-3---------|-1------------|-3---------|-0-------------|
|-----------|-1--------0---|--------------|------------|------------||-----0-----|--------------|-3--------2---|-5-------3--|-----6------||---------2-|------0---3---|----------4---|---------3--|---------8--||---0-------|--------------|------2-------|------3-----|---6--------||-----------|--------------|-0------------|------------|------------||-2---------|-3------------|--------------|-3-------5--|-6----------|
|------------|-----------|-6-----------||-6----------|-----6-----|----------9--||---------8--|---------8-|----------6--||---------6--|---6-------|---------10--||------9-----|-----------|------8------||-7-------8--|-9---------|-6-----------|
|----------0-|-6--------5---|-3--------1---||-----7------|------3-------|------1-------||--------0---|----------3---|----------1---||---7--------|--------------|--------------||-0----------|--------------|--------------||------------|-3------------|-1------------|
|--------------|-------------|-----------------||-4------3-1p0-|---0-1h3-4h6-|-8---------6-----||-----0--------|-2-----------|----6--------8p7-||-----1--------|-------------|--------6--------||-0------------|-------------|-----------------||--------------|-------------|-7---------------|
|--------------|---------------8--12-|------------10-13-||--------6-8h9-|-10--------10--------|---------10-------||----6-8-------|--------9------------|------10----------||-10-----------|----10---------------|---10-------------||--------------|---------------------|------------------||--------------|--0------------------|-0----------------|
|------------12-15-|-<19>---15p12----||---------12-------|--------------14-||------12----------|-----------------||---12-------------|-----------------||------------------|---0-------------||-0----------------|-----------------|
|---9-----7-|-----------|---10-8---10-|-6---8-6--||-----8-----|-6---------|------8------|-8-----8--||-----8-----|-6---6-----|------8------|-6-----6--||-----------|-------8---|-------------|----------||-----------|---------9-|-8-----------|-6--------||-0---------|-6---------|-------------|----------|
|---8-6---8-|-4---6-4--|---6-4---6-|-1---3-1--|---3-1---3-|--------------||-----8-----|-6-----6--|-----6-----|-1-----1--|-----1-----|-1p=====0-3p1-||-----6-----|-4-----4--|-----4-----|-1-----1--|-----1-----|-----0--------||-----------|----------|-0---------|-1--------|-0---------|-1------------||-0---------|-4--------|-----------|----------|-----------|--------------||-----------|----------|-----------|----------|-----------|--------------|
|-------------|--------------|-7------0--9p=7-||-0-1-3-4-6h7-|-8------6-9p8-|-----5----------||-------------|-----6--------|-----7----------||-------------|-----6--------|-----6----------||-------------|--------------|----------------||-------------|-6------------|-0--------------|
|-12----------|---9--------|----------||------10-----|-----7---10-|-3--------||---------11--|-----8------|-4---4----||---------11--|-----8------|-4-----4--||--0----------|------------|-0--------||-------------|-0----------|----------|
|---0--------0-|-----12------|----------|--------|--^5-----|||-----1--------|-------------|----------|--------|--^5-----|||---------3----|--------9----|----------|--------|--^6-----|||---------2----|-------------|----------|--------|--^7-----|||--------------|-0-----------|--7-----7-|--------|--^7-----|||-0------------|-------------|----0-----|-5------|--^5-----||
Please rate this tab:
x1.0