Antonio Vivaldi - Concert In D For Guitar tab

Concert in D for Guitar by Antonio Vivaldi
Classical Guitar

Tabbed by: Edward A. Mirador
Email: edalimir@yahoo.com


E||---2p-0-----2p-0-----5-----------|--2p-0-----2p-0-----5-----------|B||--------3--------3---------------|-------3--------3---------------|G||*-----------------------2--2--2--|-----------------------2--2--2--|D||*--0--------0--------------------|--0--------0--------------------|A||---------------------4-----------|--------------------4-----------|E||---------------------------------|--------------------------------|
--5p-3-2---5p-3-2---0---------|--5p-3-2---5p-3-2---------------------|------------------------------|--------------------3p-2-0---3p-2-0---|--------------------2---------|--------------------------------------|--0--------0------------------|--4--------4--------------------------|------------------------------|--------------------2--------2--------|------------------------------|--------------------------------------|
Dm --3p-2-0---3p-2-0---------------------|--2-------1--1--0--0--1h-3-|--------------------2p-0-----2p-0-----|---------------------------|-------------------------2--------2---|--2----------------2-------|--2--------2--------------------------|--0----------0-------------|--------------------0--------0--------|---------------------------|--------------------------------------|---------------------------|
--1--------1--1--0--0--1h-3-|--1-----------------0--0--|-----3--3-------------------|-----3--3--3--4--4--------|--------2-----------2-------|--------2-----5-----3-----|--0-----------0-------------|--0-----------------------|----------------------------|--------------------------|----------------------------|--------------------------|
--1--1--2--2--3--3--4--4--|--5-----5-----5--------3--|--------3--1--------5--3--|--2-----2-----2--------2--|--2-----------3-----------|--2-----2-----2--------2--|--------------------------|--------------------------|--------------------------|--------------------------|--------------------------|--------------------------|
--2h-3-5-2-0h-2-3-0-2h-3-5-2-0h-2-3-0-|-------------2p-0-----5p-3-2---|--------------------------------------|--3-------3-------3------------|--------------------------------------|--2----------------------------|--0-----------------0-----------------|--0----------0--------4--------|-----------0-----------------0--------|-------------------------------|--------------------------------------|-------------------------------|
--0--------------------3p-2-0---|--2--------5--7p-5-3---7p-5-3---|--------------5p-3-2------------|-----3--3-----------------------|-----2--2--2--------------------|--------------0--------0--------|--------------------------------|--0-----------------------------|--0-----------0--------4--------|--------------------------------|--------------------------------|--------------------------------|
--0-------0-------5p-3-2---5p-3-2---|------------------3p-2-0---3p-2-0---|----2-2-2---2-2-2-------------------|--3-0-0-0-3-0-0-0-------------------|------------------------------------|------------------------------------|------------------4--------4--------|------------------2--------2--------|--4---------------------------------|--2---------------------------------|------------------------------------|------------------------------------|
--2p-0-----2p-0-----4p-2-0---4p-2-0---|--5------------------|-------3--------3---------------------|---------------------|--------------------------------------|--6------------------|--0--------0-----------------2--------|---------------------|--------------------------------------|--0------------------|--------------------0-----------------|---------------------|
-----0--5--4-2-0--0--2--0---|-----0--5--4-2-0--0--2--0---|--------------------------3-|--2-----------------------3-|----------------------------|----------------------------|----------------------------|----------------------------|---------------0------------|--0------------0------------|----------------------------|----------------------------|
---------0------5-----------|---------0------5-----------|--2--0------3-2----2--3--0--|--2--0------3-2----2--3--0--|-------2--------------------|-------2--------------------|----------------------2-----|----------------------2-----|--0------0------0-----------|--0------0------0-----------|----------------------------|----------------------------|
-----5--7--4--5---------||---------------------0-----------|-----------0--2---------||---2p-0-----2p-0-----------------|--2--6--7-----2--------*||*-------2--------2---------------|--------------2--------*||*-----------------------2--2--2--|--0-----------0---------||---0--------0--------------------|--------0---------------||---------------------4-----------|
--------------------0-----------|----------------------------0--|--2p-0-----2p-0-----------------|--2p-0-----2p-0----------------|-------2--------2---------------|-------2--------2---1----------|-----------------------2--2--2--|-------------------------------|--0--------0--------------------|--0--------0-------------------|--------------------4-----------|--------------------0----------|
C5 --5-----------------------------------------------------------------------|-----------------------------------------------------5-----8--7--------7--|-----------------------------------------------------------------7--------|--------------------------------------------------------7-----------0-----|--------------------------------------------------------------------------|--------------------------------------------------------------------------|
C7................................................ --7-------------------------------------------------------------------------|-----------------------------------------------------7-----10--9---------9--|------------------------------------------------------------------9---------|--------------------------------------------------------9-------------------|----------------------------------------------------------------------------|---------------------------------------------------------------------12-----|
C9...................................... --9------------------------------------------------------------|-------------------------------------------9-----12--10--------|----------------------------------------------6----------------|-----------------------------------------------------11--------|------------------------------------------------------9--------|---------------------------------------------------------------|
C9................................................ ---------------------------------------------------------------|---9-------------------------------------------------10--------|---------------------------------------------------------------|--11-------------------------------------------------11--------|---9--------------------------------------------------9--------|---------------------------------------------------------------|
-----------------------|--6--------7--------|--6--------7--------|---9--------10---------|--------------------|--------------------|-----------------------|--6--------7--------|--6--------7--------|--11--------11---------|--4-----------------|--4-----------------|---9---------9---------|-----------9--------|-----------9--------|-----------------------|--------------------|--------------------|
--6--------7---------|--7--5-3-2--0-----7-----7--|-----7-----7-----7-----7--|---------------------|---------------------------|--5-----7-----8-----------|--6--------7---------|---------------7-----7-----|--------------------7-----|--4------------------|---------------------------|--------------------------|-----------9---------|---------------------------|--------------------------|---------------------|---------------------------|--------------------------|
-----7-----6--7---------|--7--5-3-2--0--------------|--------------------------|--5-----7-----0---------|---------------3--0-----0--|-----0-----0-----0-----0--|------------------------|---------------------------|--------------------------|------------------------|---------------------------|--2-----4-----5-----0-----|------------------------|---------------------2-----|--------------------------|------------------------|---------------------------|--------------------------|
----------------------2--|--2p-0-----2p-0-----5-----------|-----0--------0----------|-------3--------3---------------|-----------3-------------|-----------------------2--2--2--|--2-----4----------------|--0--------0--------------------|-------------------------|--------------------4-----------|-------------------------|--------------------------------|
--2p-0-----2p-0-----5p-3-2---5p-3-2---|--0-------1--1--0--0--1h-3-|-------3--------3---------------------|---------------------------|--------------------------------------|--2----------------2-------|--0--------0--------0--------0--------|---------------------------|--------------------------------------|-------------0-------------|--------------------------------------|---------------------------|
--1--------1--1--0--0--1h-3-|--1--------5--6--6--6--5-3-|-----3--3-------------------|-----3--3------------------|--------2-----------2-------|--------2-----0-----5------|--0-------------------------|--0------------------------|--------------0-------------|---------------------------|----------------------------|---------------------------|
--5--5--5--3p-2-3--3--3--1p-0-|--1--1--2--2--3--3--4--4--|------------------------------|--------1-----------5--3--|--------3-------------2-------|--------------3-----------|--3-------------2-------------|--0-----------------------|------------------------------|--------------------------|------------------------------|--------------------------|
--5-5-5-5-5-5-5-5-3-3-3-3-3-3-3-3-|--2--0---0-----2h-3-5-2-0h-2-3-0-|----------------------------------|-------3----2--------------------|--6---------------2---------------|---------0-----------------------|----------------------------------|--0------------0-----------------|--------------------------0-------|------------------------0--------|----------5-----------------------|---------------------------------|
--2h-3-5-2-0h-2-3-0-2h-3-5-2-0h-2-3-0-|--2-----0---------------||--------------------------------------|-----3--0--2--3---------||--------------------------------------|-----2--0--2--2--------*||--0-----------------0-----------------|--0--4--------4--------*||-----------0-----------------0--------|-----------0--5---------||--------------------------------------|--------3---------------||
Tap to rate this tab
 
# A B C D E F G H I J K L M N O P Q R S T U V W X Y Z