Antonio Vivaldi - 4 Seasons tab

Hi, I arranged this song for classical guitar, sounds very good to me.

Tune the guitar down half step! enjoy, it is a very easy song to play and sounds really impressive

                                                          
D#||--5--------5--------5-----|-----5--------3--------3--|A#||-----6--------6--------6--|--------6--------4--------|F#||--------7--------7--------|--7--------7--------5-----|C#||--------------------------|--------------------------|G#||--------------------------|--------------------------|D#||--------------------------|--------------------------|
--------3--------3--------|--1--------1--------1-----|--4--------4--------4-----|-----3--------3--------3--|-----5--------5--------5--|--------3--------3--------|--------------------------|--------------------------|--------------------------|--------------------------|--------------------------|--------------------------|
-----1--------1--------1--|--------1--------1--------|--------3--------1--------|--1--------1--------1-----|--3--------3--------2-----|-----2--------2--------2--|--------------------------|--------------------------|--------------------------|--------------------------|--------------------------|--------------------------|
--------------------------|--------------------------|--5--------5--------5-----|-----5--------3--------3--|-----3--------3--------3--|--------3--------2--------|--------5--------5--------|--5--------5--------3-----|--------------------------|--------------------------|--------------------------|--------------------------|
--------------------------|--------------------------|--------3--------3--------|--5--------5--------5-----|--2--------2--------2-----|-----6--------6--------6--|-----3--------3--------3--|--------7--------7--------|--------------------------|--------------------------|--------------------------|--------------------------|
--------------3--------3--|--------3--------3--------|-----5-----------3--------|--3--------3--------3-----|--------6-----------3-----|-----3--------3--------3--|--7--------7--------------|--------------------------|--------------------------|--------------------------|--------------------------|--------------------------|
--1--------1--------1-----|-----1--------1--------1--|-----3--------3--------3--|--------3--------3--------|--------3--------3--------|--3--------3--------2-----|--------------------------|--------------------------|--------------------------|--------------------------|--------------------------|--------------------------|
--------1--------1--------|--0--------0--------0-----|--3--------3--------3-----|-----3--------3--------3--|-----2--------2--------2--|--------2--------2--------|--------------------------|--------------------------|--------------------------|--------------------------|--------------------------|--------------------------|
-----0--------------------|--------------------------|--------3-----8--------8--|--------8--------8--------|--2--------2-----7--------|--7--------7--------7-----|--------------------8-----|-----8--------8--------8--|--------------------------|--------------------------|--------------------------|--------------------------|
--------------------------|-----------------------------|--9--------9--------9-----|-----9--------13---------13--|-----9--------9--------9--|--------9---------9----------|--------9--------9--------|--9--------9---------10------|--------------------------|-----------------------------|--------------------------|-----------------------------|
-------------------------------|----------------------------------|---------13---------13---------|--11----------11----------11------|--9----------9----------9------|------10----------10----------10--|-----10---------10---------10--|----------12----------12----------|-------------------------------|----------------------------------|-------------------------------|----------------------------------|
----------------------------------|----------------------------------|------11----------10----------10--|----------10----------10----------|----------10----------10----------|--10----------10----------10------|--12----------12----------10------|------10----------10----------10--|----------------------------------|----------------------------------|----------------------------------|----------------------------------|
--1--------1--------1-----|-----1--------1--------1--|-----3--------3--------3--|--------3--------3--------|--------3--------3--------|--3--------3--------2-----|--------------------------|--------------------------|--------------------------|--------------------------|--------------------------|--------------------------|
--------1--------1--------|--0--------0--------0-----|--3--------3--------3-----|-----3--------3--------3--|-----2--------2--------2--|--------2--------2--------|--------------------------|--------------------------|--------------------------|--------------------------|--------------------------|--------------------------|
-----0--------0--------0--|--1--1--1--1--1--1--1--1--|--------3--------3--------|--3--3--3--3--3--3--3--3--|--2--------2--------2-----|--3--3--3--3--3--3--3--3--|--------------------------|--------------------------|--------------------------|--------------------------|--------------------------|--------------------------|
--1--1--1--1--1--1--1--1--|--0--0--0--0--0--0--0--0--|--3--3--3--3--3--3--3--3--|--3--3--3--3--3--3--3--3--|--2--2--2--2--2--2--2--2--|--2--2--2--2--2--2--2--2--|--------------------------|--------------------------|--------------------------|--------------------------|--------------------------|--------------------------|
--1--1--1--1--1--1--1--1--|--1--1--1--1--1--1--1--1--|--3--3--3--3--3--3--3--3--|--3--3--3--3--3--3--3--3--|--3--3--3--3--3--3--3--3--|--2--2--2--2--2--2--2--2--|--------------------------|--------------------------|--------------------------|--------------------------|--------------------------|--------------------------|
--0--0--0--0--0--0--0--0--|-------------------|------------------||--3--3--3--3--3--3--3--3--|-------------------|------------------||--2--2--2--2--2--2--2--2--|--7----------------|------------------||--------------------------|--7----------------|------------------||--------------------------|--5----------------|------------------||--------------------------|-------------------|------------------||
Tap to rate this tab
 
# A B C D E F G H I J K L M N O P Q R S T U V W X Y Z