Apologetix - Another Kick In The Wall tab

Another Kick in the wall pt 2
ApologetiX

Chords:

     +-+-+-+-+-+    +-+-+-+-+-+    +-+-+-+-+-+    +-+-+-+-+-+
5 x o o o o o 3 o o o o o o 1 o o o o o o 5 o o o o o o +-+-+-+-+-+ +-+-+-+-+-+ +-+-+-+-+-+ +-+-+-+-+-+
6 | | | | o | 4 | | | o | | 2 | | | o | | 6 | | | | | | +-+-+-+-+-+ +-+-+-+-+-+ +-+-+-+-+-+ +-+-+-+-+-+
7 | | o o | | 5 | o o | | | 3 | o o | | | 7 | o o | | | +-+-+-+-+-+ +-+-+-+-+-+ +-+-+-+-+-+ +-+-+-+-+-+ Dm (V) G F Am
+-+-+-+-+-+ +-+-+-+-+-+ +-+-+-+-+-+ +-+-+-+-+-+
1 | | | | o | 10 o o o o o o 8 o o o o o o 1 o o o o o o +-+-+-+-+-+ +-+-+-+-+-+ +-+-+-+-+-+ +-+-+-+-+-+
2 | | o | | | 11 | | | | | | 9 | | | o | | 2 | | | | | | +-+-+-+-+-+ +-+-+-+-+-+ +-+-+-+-+-+ +-+-+-+-+-+
3 | o | | | | 12 | o o | | | 10 | o o | | | 3 | | o o o | +-+-+-+-+-+ +-+-+-+-+-+ +-+-+-+-+-+ +-+-+-+-+-+ C Dm (X) C (VIII) Bb
Dm(v)
A|---2-3-2---2-3-2----|E|-3-------3----------|
Dm(v)
A|---2-3-2---2-3-2----|E|-3-------3----------|
Dm(v)
A|-----1-3-1---1-3-1----|E|-1-3-------3----------|
Dm(v) G
A|---2-3-2---2-3-2----|E|-3-------3----------|
G
A|-5--|E|-3--|Strike and let go about 3 times.
F C Dm(v)
D|---------------------5----------------------7--|A|3--------------------3----------------------5--|E|1----------------------------------------------| Stike and let go on these chords as wellF C Dm(v)
D|---------------------5----------------------7--|A|3--------------------3----------------------5--|E|1----------------------------------------------|
Play 2 times Fill #1: Dm(x) C(vii) Dm(x) Dm(v) Am G F / / / // / / / / / / / Fill #2: Dm(v) Am G F / / / / / / / Solo: The guitar solo is played over the same bass line as the verse, but the keyboards hold down some different chords which are fairly subtle but really add to the feel of the piece.
|-------------------------10---------------------------------||-13-p-10----10--------10----13b(15)--------------10-10-10---||---------12----12b(14)---------------------------10-10-10---||------------------------------------------------------------||------------------------------------------------------------||------------------------------------------------------------|
|------------------------------------------------------------||-13--b(15)-b(17)-rb(13)-------13-p-10----10-----------------||--------------------------------------12--------------------||------------------------------------------------------------||------------------------------------------------------------||------------------------------------------------------------|
|------------------------------------------------------------||------------------------------------------------------------||-10-\-9 ---9---------12-------------------------------------||--------12---10-/-12----12----------------------------------||------------------------------------------------------------||------------------------------------------------------------|
|------------------------------------------------------------||--10----------10--10------10--10------10--12--10------------||--10----------10--10------10--10------10--12--10------------||-----12--12-----------12----------12------------------------||------------------------------------------------------------||------------------------------------------------------------|
|-------13b(15)-13-13----------------------------------------||-----x------------------13b(15)b(17)b(18)-rb(15)b(17)-------||---x--------------------------------------------------------||-x----------------------------------------------------------||------------------------------------------------------------||------------------------------------------------------------|
cont..|-------10---------------------------------------------------||----10----13p10---------------------------------------------||-12-------------12--b(14)rb(12)-p-10---12-p-10-------10-----||-----------------------------------------------12-------12--||------------------------------------------------------------||------------------------------------------------------------|
|------------------------------------------------------------||------------------------------------------------------------||--12--10----------------------------------------------------||--12--10----------------------------------------------------||----------12--10---10--8--------------------8---------------||--------------------------10p8-----10--10-----10p8--10------|
|------------------------------------------------------------||-----------------5h6p5--------------------------6b(8)-------||---------5--7---------7---7-p-5------5--5--7p5--------------||----/7--------------------------7---------------------------||------------------------------------------------------------||------------------------------------------------------------|
|-------------------------------------15b(17)-13-------------||--13b(15)---13b(15)b(17)rb(13)------------------15----------||------------------------------------------------------------||------------------------------------------------------------||------------------------------------------------------------||------------------------------------------------------------|
|-----13-----15b(17)rb(15)b(17)rb(15)b(17)rb(15)----15b(17)---||-/15----15-------------------------------------15---------15-||-------------------------------------------------------------||-------------------------------------------------------------||-------------------------------------------------------------||-------------------------------------------------------------|
|--18b(20)--(20)---20b(22)---20-p-17---20-p-17---------------||------------------------------------------------------------||------------------------------------------------------------||------------------------------------------------------------||------------------------------------------------------------||------------------------------------------------------------|
|------------------------------------------------------------||-------------------------------------------12--12---10------||-10--10--10----------------------12--10----12--12---10------||-------------12------------------12--10------------(10)-----||----------------------10-10-10------------------------------||------------------------------------------------------------|
|------------------------------------------------------------||--x--x--10--------------------------------------------------||--x--x--10---x--x-------------------------------------------||-------------------12---------------------------------------||---------------------------------10---8---10---8------------||---------------------------------------------------10-------|
Keyboard: NB: the chords are held down - the beats shown are just to establish timing. | Dm / / / | / / / C | x8 | G / / / | / / / / | Dm / / / | / / / /| x2 | C / / / | / / / / | | Bb / / / | / / / / | | C / / / | / / / / | | no chord ||end of solo
Tap to rate this tab
 
# A B C D E F G H I J K L M N O P Q R S T U V W X Y Z