Apologetix - Boulevard Of Both Extremes tab

| Intro (With A Tremelo Effect)                                                 |
|-------------------------------------------------------------------------------|
|
|  NOTE: This is played over all of the verses; anywhere you hear a tremelo in
|  the background, this is the riff being played:
|
| |---------------------------|| |---------------------------|| |----------------8~---------|| |--3~-----6~-----8~-----8~--|| |--3~-----6~-----6~-----8~--|| |--1~-----4~------------6~--|
| |-------------------------------------------------------------------------------|
| Verse 1 ||-------------------------------------------------------------------------------|
|
| |-----------------------------------|| |-----------------------------------|| |------------------8-8-8-8----------| | |--3-3-3-3-6-6-6-6-8-8-8-8-8-8-8-8--| | |--3-3-3-3-6-6-6-6-6-6-6-6-8-8-8-8--|| |--1-1-1-1-4-4-4-4---------6-6-6-6--|
|
| |-----------------------------------|| |-----------------------------------|| |------------------8-8-8-8----------| | |--3-3-3-3-6-6-6-6-8-8-8-8-8-8-8-8--| | |--3-3-3-3-6-6-6-6-6-6-6-6-8-8-8-8--|| |--1-1-1-1-4-4-4-4---------6-6-6-6--|
|
| |-----------------------------------|| |-----------------------------------|| |------------------8-8-8-8----------| | |--3-3-3-3-6-6-6-6-8-8-8-8-8-8-8-8--| | |--3-3-3-3-6-6-6-6-6-6-6-6-8-8-8-8--|| |--1-1-1-1-4-4-4-4---------6-6-6-6--|
| | || |-----------------------------------|| |--8/9-----13/11---8/9-----9/6------|| |-----------------------------------| | |-----------------------------------| | |-----------------------------------|| |-----------------------------------|
|
| |-----------------------------------|| |-----------------------------------|| |------------------8-8-8-8----------| | |--3-3-3-3-6-6-6-6-8-8-8-8-8-8-8-8--| | |--3-3-3-3-6-6-6-6-6-6-6-6-8-8-8-8--|| |--1-1-1-1-4-4-4-4---------6-6-6-6--|
|
| |-----------------------------------|| |-----------------------------------|| |------------------8-8-8-8----------| | |--3-3-3-3-6-6-6-6-8-8-8-8-8-8-8-8--| | |--3-3-3-3-6-6-6-6-6-6-6-6-8-8-8-8--|| |--1-1-1-1-4-4-4-4---------6-6-6-6--|
|
| |-----------------------------------|| |-----------------------------------|| |------------------8-8-8-8-------5--| | |--3-3-3-3-6-6-6-6-8-8-8-8-8-8-8-5--| | |--3-3-3-3-6-6-6-6-6-6-6-6-8-8-8-3--|| |--1-1-1-1-4-4-4-4---------6-6-6----|
| | || |-----------------------------------|| |--8/9-----13/11---8/9--------------|| |-----------------------------------| | |-----------------------------------| | |-----------------------------------|| |-----------------------------------|
| |-------------------------------------------------------------------------------|
| Chorus 1 ||-------------------------------------------------------------------------------|
|
| |-----------------------------------|| |-----------------------------------|| |--6-6-6-6---------8-8-8-8----------|| |--6-6-6-6-6-6-6-6-8-8-8-8-3-3-3-3--|| |--4-4-4-4-6-6-6-6-6-6-6-6-3-3-3-3--|| |----------4-4-4-4---------1-1-1-1--|
|
| |-----------------------------------|| |-----------------------------------|| |--6-6-6-6---------8-8-8-8----------|| |--6-6-6-6-6-6-6-6-8-8-8-8-3-3-3-3--|| |--4-4-4-4-6-6-6-6-6-6-6-6-3-3-3-3--|| |----------4-4-4-4---------1-1-1-1--|
|
| |-----------------------------------|| |-----------------------------------|| |--6-6-6-6---------8-8-8-8----------|| |--6-6-6-6-6-6-6-6-8-8-8-8-3-3-3-3--|| |--4-4-4-4-6-6-6-6-6-6-6-6-3-3-3-3--|| |----------4-4-4-4---------1-1-1-1--|
|
| |-----------------------------|| |-----------------------------|| |--6-6-6-6---------5-5-5-5-5--|| |--6-6-6-6-6-6-6-6-5-5-5-5-5--|| |--4-4-4-4-6-6-6-6-3-3-3-3-3--|| |----------4-4-4-4------------|
| |-------------------------------------------------------------------------------|
| Verse 2 ||-------------------------------------------------------------------------------|
|
| |-----------------------------------|| |-----------------------------------|| |------------------8-8-8-8----------| | |--3-3-3-3-6-6-6-6-8-8-8-8-8-8-8-8--| | |--3-3-3-3-6-6-6-6-6-6-6-6-8-8-8-8--|| |--1-1-1-1-4-4-4-4---------6-6-6-6--|
|
| |-----------------------------------|| |-----------------------------------|| |------------------8-8-8-8----------| | |--3-3-3-3-6-6-6-6-8-8-8-8-8-8-8-8--| | |--3-3-3-3-6-6-6-6-6-6-6-6-8-8-8-8--|| |--1-1-1-1-4-4-4-4---------6-6-6-6--|
|
| |-----------------------------------|| |-----------------------------------|| |------------------8-8-8-8----------| | |--3-3-3-3-6-6-6-6-8-8-8-8-8-8-8-8--| | |--3-3-3-3-6-6-6-6-6-6-6-6-8-8-8-8--|| |--1-1-1-1-4-4-4-4---------6-6-6-6--|
|
| |-----------------------------------|| |-----------------------------------|| |------------------8-8-8-8----------| | |--3-3-3-3-6-6-6-6-8-8-8-8-8-8-8-8--| | |--3-3-3-3-6-6-6-6-6-6-6-6-8-8-8-8--|| |--1-1-1-1-4-4-4-4---------6-6-6-6--|
|
| |-----------------------------------|| |-----------------------------------|| |------------------8-8-8-8----------| | |--3-3-3-3-6-6-6-6-8-8-8-8-8-8-8-8--| | |--3-3-3-3-6-6-6-6-6-6-6-6-8-8-8-8--|| |--1-1-1-1-4-4-4-4---------6-6-6-6--|
| | || |-----------------------------------|| |--8/9-----13/11---8/9--------------|| |-----------------------------------| | |-----------------------------------| | |-----------------------------------|| |-----------------------------------|
|
| |-----------------------------------|| |-----------------------------------|| |------------------8-8-8-8----------| | |--3-3-3-3-6-6-6-6-8-8-8-8-8-8-8-8--| | |--3-3-3-3-6-6-6-6-6-6-6-6-8-8-8-8--|| |--1-1-1-1-4-4-4-4---------6-6-6-6--|
|
| |-----------------------------------|| |-----------------------------------|| |------------------8-8-8-8----------| | |--3-3-3-3-6-6-6-6-8-8-8-8-8-8-8-8--| | |--3-3-3-3-6-6-6-6-6-6-6-6-8-8-8-8--|| |--1-1-1-1-4-4-4-4---------6-6-6-6--|
|
| |-----------------------------------|| |-----------------------------------|| |------------------8-8-8-8----------| | |--3-3-3-3-6-6-6-6-8-8-8-8-8-8-8-8--| | |--3-3-3-3-6-6-6-6-6-6-6-6-8-8-8-8--|| |--1-1-1-1-4-4-4-4---------6-6-6-6--|
| | || |-----------------------------------|| |--8/9-----13/11---8/9--------------|| |-----------------------------------| | |-----------------------------------| | |-----------------------------------|| |-----------------------------------|
|
| |-----------------------------------|| |-----------------------------------|| |------------------8-8-8-8-------5--| | |--3-3-3-3-6-6-6-6-8-8-8-8-8-8-8-5--| | |--3-3-3-3-6-6-6-6-6-6-6-6-8-8-8-3--|| |--1-1-1-1-4-4-4-4---------6-6-6----|
| | || |-----------------------------------|| |--8/9-----13/11---8/9--------------|| |-----------------------------------| | |-----------------------------------| | |-----------------------------------|| |-----------------------------------|
| |-------------------------------------------------------------------------------|
| Chorus 2 ||-------------------------------------------------------------------------------|
|
| |-----------------------------------|| |-----------------------------------|| |--6-6-6-6---------8-8-8-8----------|| |--6-6-6-6-6-6-6-6-8-8-8-8-3-3-3-3--|| |--4-4-4-4-6-6-6-6-6-6-6-6-3-3-3-3--|| |----------4-4-4-4---------1-1-1-1--|
|
| |-----------------------------------|| |-----------------------------------|| |--6-6-6-6---------8-8-8-8----------|| |--6-6-6-6-6-6-6-6-8-8-8-8-3-3-3-3--|| |--4-4-4-4-6-6-6-6-6-6-6-6-3-3-3-3--|| |----------4-4-4-4---------1-1-1-1--|
|
| |-----------------------------------|| |-----------------------------------|| |--6-6-6-6---------8-8-8-8----------|| |--6-6-6-6-6-6-6-6-8-8-8-8-3-3-3-3--|| |--4-4-4-4-6-6-6-6-6-6-6-6-3-3-3-3--|| |----------4-4-4-4---------1-1-1-1--|
|
| |-----------------------------|| |-----------------------------|| |--6-6-6-6---------5-5-5-5-5--|| |--6-6-6-6-6-6-6-6-5-5-5-5-5--|| |--4-4-4-4-6-6-6-6-3-3-3-3-3--|| |----------4-4-4-4------------|
| |-------------------------------------------------------------------------------|
| Pre-Solo ||-------------------------------------------------------------------------------|
|
| |-----------------------------------|| |-----------------------------------|| |------------------8-8-8-8----------| | |--3-3-3-3-6-6-6-6-8-8-8-8-8-8-8-8--| | |--3-3-3-3-6-6-6-6-6-6-6-6-8-8-8-8--|| |--1-1-1-1-4-4-4-4---------6-6-6-6--|
|
| |-----------------------------------|| |-----------------------------------|| |------------------8-8-8-8-------5--| | |--3-3-3-3-6-6-6-6-8-8-8-8-8-8-8-5--| | |--3-3-3-3-6-6-6-6-6-6-6-6-8-8-8-3--|| |--1-1-1-1-4-4-4-4---------6-6-6----|
| |-------------------------------------------------------------------------------|
| Solo ||-------------------------------------------------------------------------------|
| |
| |-----------------------------------|| |-----------------------------------|| |--6-6-6-6---------8-8-8-8----------|| |--6-6-6-6-6-6-6-6-8-8-8-8-3-3-3-3--|| |--4-4-4-4-6-6-6-6-6-6-6-6-3-3-3-3--|| |----------4-4-4-4---------1-1-1-1--|
| | || |-----------------------------------|| |--6-----8/9-----13/11---8/9---9----|| |-----------------------------------| | |-----------------------------------| | |-----------------------------------|| |-----------------------------------|
|
| |-----------------------------------|| |-----------------------------------|| |--6-6-6-6---------8-8-8-8----------|| |--6-6-6-6-6-6-6-6-8-8-8-8-3-3-3-3--|| |--4-4-4-4-6-6-6-6-6-6-6-6-3-3-3-3--|| |----------4-4-4-4---------1-1-1-1--|
| | || |-----------------------------------|| |--6-----8/9-----13/11---8/9---9----|| |-----------------------------------| | |-----------------------------------| | |-----------------------------------|| |-----------------------------------|
|
| |-----------------------------------|| |-----------------------------------|| |--6-6-------------8-8-8-8----------|| |--6-6-----6-6-----8-8-8-8-3-3-3-3--|| |--4-4-----6-6-----6-6-6-6-3-3-3-3--|| |----------4-4-------------1-1-1-1--|
| | || |-----------------------------------|| |--6-----8/9-----13/11---8/9---9----|| |-----------------------------------| | |-----------------------------------| | |-----------------------------------|| |-----------------------------------|
|
| |---------------------------------------------------|| |---------------------------------------------------|| |--6-6-------------5-5-5-5-5-5-5-5-5-5-5-5-5-5-5-5--|| |--6-6-----6-6-----5-5-5-5-5-5-5-5-5-5-5-5-5-5-5-5--|| |--4-4-----6-6-----3-3-3-3-3-3-3-3-3-3-3-3-3-3-3-3--|| |----------4-4--------------------------------------|
| | || |---------------------------------------------------|| |--6-----8/9----11/13-13-13-13-13-13-13-13-13-13-13-|| |---------------------------------------------------| | |---------------------------------------------------| | |---------------------------------------------------|| |---------------------------------------------------|
| |-------------------------------------------------------------------------------|
| Verse 3 ||-------------------------------------------------------------------------------|
|
| |-----------------------------------|| |-----------------------------------|| |------------------8-8-8-8----------| | |--3-3-3-3-6-6-6-6-8-8-8-8-8-8-8-8--| | |--3-3-3-3-6-6-6-6-6-6-6-6-8-8-8-8--|| |--1-1-1-1-4-4-4-4---------6-6-6-6--|
|
| |-----------------------------------|| |-----------------------------------|| |------------------8-8-8-8-------5--| | |--3-3-3-3-6-6-6-6-8-8-8-8-8-8-8-5--| | |--3-3-3-3-6-6-6-6-6-6-6-6-8-8-8-3--|| |--1-1-1-1-4-4-4-4---------6-6-6----|
| |-------------------------------------------------------------------------------|
| Chorus 3 ||-------------------------------------------------------------------------------|
|
| |-----------------------------------|| |-----------------------------------|| |--6-6-6-6---------8-8-8-8----------|| |--6-6-6-6-6-6-6-6-8-8-8-8-3-3-3-3--|| |--4-4-4-4-6-6-6-6-6-6-6-6-3-3-3-3--|| |----------4-4-4-4---------1-1-1-1--|
|
| |-----------------------------------|| |-----------------------------------|| |--6-6-6-6---------8-8-8-8----------|| |--6-6-6-6-6-6-6-6-8-8-8-8-3-3-3-3--|| |--4-4-4-4-6-6-6-6-6-6-6-6-3-3-3-3--|| |----------4-4-4-4---------1-1-1-1--|
|
| |-----------------------------------|| |-----------------------------------|| |--6-6-6-6---------8-8-8-8----------|| |--6-6-6-6-6-6-6-6-8-8-8-8-3-3-3-3--|| |--4-4-4-4-6-6-6-6-6-6-6-6-3-3-3-3--|| |----------4-4-4-4---------1-1-1-1--|
|
| |---------------------------------------------------|| |---------------------------------------------------|| |--6-6-6-6---------5-5-5-5-5-5-5-5-5-5-5-5-5-5-5-5--|| |--6-6-6-6-6-6-6-6-5-5-5-5-5-5-5-5-5-5-5-5-5-5-5-5--|| |--4-4-4-4-6-6-6-6-3-3-3-3-3-3-3-3-3-3-3-3-3-3-3-3--|| |----------4-4-4-4----------------------------------|
| |-------------------------------------------------------------------------------|
| Outro (A Little Weird-Sounding) ||-------------------------------------------------------------------------------|
|
| |---------------------------------------------|| |---------------------------------------------|| |---------6--6-6-8--8-8-7--7-7----------------|| |--3--3-3-6--6-6-8--8-8-7--7-7-6--6-6-2--2-2--|| |--3--3-3-4--4-4-6--6-6-5--5-5-6--6-6-2--2-2--|| |--1--1-1----------------------4--4-4-0--0-0--|
|
| |---------------------------------------------|| |---------------------------------------------|| |---------6--6-6-8--8-8-7--7-7----------------|| |--3--3-3-6--6-6-8--8-8-7--7-7-6--6-6-2--2-2--|| |--3--3-3-4--4-4-6--6-6-5--5-5-6--6-6-2--2-2--|| |--1--1-1----------------------4--4-4-0--0-0--|
|
| |---------------------------------------------|| |---------------------------------------------|| |---------6--6-6-8--8-8-7--7-7----------------|| |--3--3-3-6--6-6-8--8-8-7--7-7-6--6-6-2--2-2--|| |--3--3-3-4--4-4-6--6-6-5--5-5-6--6-6-2--2-2--|| |--1--1-1----------------------4--4-4-0--0-0--|
|
| |---------------------------------------|| |---------------------------------------|| |---------6--6-6-8--8-8-7--7-7----------|| |--3--3-3-6--6-6-8--8-8-7--7-7-6-6-2-2--|| |--3--3-3-4--4-4-6--6-6-5--5-5-6-6-2-2--|| |--1--1-1----------------------4-4-0-0--|
Posted by Calebcableman and I'm not a cable guy
Tap to rate this tab
 
# A B C D E F G H I J K L M N O P Q R S T U V W X Y Z