April Wine - Wont Go There tab

SONG: Won't Go There (Myles Goodwyn)
     ALBUM: Back To the Mansion
     YEAR: 2001

     This is Ryan with my first April Wine song. It is the opening track of their 
15th studio album.

Intro (palm muted) Db B F#-----------------------------------------------------------------|-----------------------------------------------------------------|-----------------------------------------------------------------|-6---6---6-6-6---4---4---4-4-4-----------------------------------|-4-4-4-4-4-4-4-0-2-2-2-2-2-2-2---4---4---4-4-4---4---4---4-4-4---|-------------------------------0-2-2-2-2-2-2-2-0-2-2-2-2-2-2-2-0-|
For the record I did everything I could Db B F#-----------------------------------------------------------------|-----------------------------------------------------------------|-----------------------------------------------------------------|-6---6---6-6-6---4---4---4-4-4-----------------------------------|-4-4-4-4-4-4-4-0-2-2-2-2-2-2-2---4---4---4-4-4---4---4---4-4-4---|-------------------------------0-2-2-2-2-2-2-2-0-2-2-2-2-2-2-2-0-|
And I knew a change would do me good..........It would Db B F# G#-----------------------------------------------------------------|-----------------------------------------------------------------|-----------------------------------------------------------------|-6---6---6-6-6---4---4---4-4-4---------------------------6-6-6-6-|-4-4-4-4-4-4-4-0-2-2-2-2-2-2-2---4---4---4-4-4---6-6-6-6-6-6-6-6-|-------------------------------0-2-2-2-2-2-2-2-0-4-4-4-4-4-4-4-4-| (release plam mute)
I better get away from the sound How 'bout... I gotta run before it brings me down Db B F# G#
-----------------------------------------------------------------|-----------------------------------------------------------------|-6-6-6-6-6-6-6---4-4-4-4-4-4-4-----------------------------------|-6-6-6-6-6-6-6---4-4-4-4-4-4-4---4-4-4-4-4-4-4---6-6-6-6-6-6-6-6-|-4-4-4-4-4-4-4-0-2-2-2-2-2-2-2---4-4-4-4-4-4-4---6-6-6-6-6-6-6-6-|-------------------------------0-2-2-2-2-2-2-2-0-4-4-4-4-4-4-4-4-|
-------------------------------------------------------------------|-------6---------------4---------------2---------------4-----------|-----6---------------4---------------3---------------5-------------|-6---------------4---------------4---------------6-----------------|---4---------------2---------------4---------------6---------------|-------------------------------------------------------------------|
you Ya' how 'bout you I don't go there no more F# G#
-------------------------------------------------------------------|-------------------------------------------------------------------|-------------------------------------------------5-----------------|---4-4-4-4-4-4-4---4-4-4-4-4-4-4---6-6-6-6-6-6-6-6-----------------|---4-4-4-4-4-4-4---4-4-4-4-4-4-4---6-6-6-6-6-6-6-6-----------------|-0-2-2-2-2-2-2-2-0-2-2-2-2-2-2-2-0 4-4-4-4-4-4-4-4-----------------|
---2-------------------------------4------4------4-------------------|---2-------------------------------4--------4----4-------------------|---3-------------------------------5----------5--5-------------------|---4-------------------------------6---------------------------------|---4-------------------------------6---------------------------------|---2-------------------------------4---------------------------------|
Na na na naa, na naaaaa I don't go there no more Db B F# G#
-----------------------------------------------------------------|-----------------------------------------------------------------|-6-6-6-6-6-6-6---4-4-4-4-4-4-4-----------------------------------|-6-6-6-6-6-6-6---4-4-4-4-4-4-4---4-4-4-4-4-4-4---6-6-6-6-6-6-6-6-|-4-4-4-4-4-4-4-0-2-2-2-2-2-2-2---4-4-4-4-4-4-4---6-6-6-6-6-6-6-6-|-------------------------------0-2-2-2-2-2-2-2-0-4-4-4-4-4-4-4-4-|
-----------------------------------------------------------------|-------6---------------4---------------2---------------4---------|-----6-----6---------4-----4---------3-----3---------5-----5-----|-6---------------4---------------4---------------6---------------|---4--------4------2--------2------4--------4------6---------6---|-----------------------------------------------------------------|
Na na na naa, na naaaaa I don't go there Db B F# G#
-----------------------------------------------------------------|-----------------------------------------------------------------|-6-6-6-6-6-6-6---4-4-4-4-4-4-4-----------------------------------|-6-6-6-6-6-6-6---4-4-4-4-4-4-4---4-4-4-4-4-4-4---6-6-6-6-6-6-6-6-|-4-4-4-4-4-4-4-0-2-2-2-2-2-2-2---4-4-4-4-4-4-4---6-6-6-6-6-6-6-6-|-------------------------------0-2-2-2-2-2-2-2-0-4-4-4-4-4-4-4-4-|
-----------------------------------------------------------------|-------6---------------4---------------2---------------4---------|-----6-----6---------4-----4---------3-----3---------5-----5-----|-6---------------4---------------4---------------6---------------|---4--------4------2--------2------4--------4------6---------6---|-----------------------------------------------------------------|
(This is the riff played at the end of the chorus) Db B
-----------------------------------------------------------------|-----------------------------------------------------------------|---6-6-6-6-6-6-6---6-6-6-6-6-6-6---4-4-4-4-4-4-4---4-4-4-4-4-4-4-|---6-6-6-6-6-6-6---6-6-6-6-6-6-6---4-4-4-4-4-4-4---4-4-4-4-4-4-4-|-0-4-4-4-4-4-4-4-0-4-4-4-4-4-4-4-0-2-2-2-2-2-2-2-0-2-2-2-2-2-2-2-|-----------------------------------------------------------------|
-----------------------------------------------------------------|------------------------------4-6-6b7~-6-4---------------------4-|---6~-----------------------6--------------4~-----------------6--|-----------------------------------------------------------------|-----------------------------------------------------------------|-----------------------------------------------------------------|
F# G#
-----------------------------------------------------------------|-----------------------------------------------------------------|-----------------------------------------------------------------|--4-4-4-4-4-4-4---4-4-4-4-4-4-4---6-6-6-6-6-6-6---6-6-6-6-6-6-6--|--4-4-4-4-4-4-4---4-4-4-4-4-4-4---6-6-6-6-6-6-6---6-6-6-6-6-6-6--|0-2-2-2-2-2-2-2-0-2-2-2-2-2-2-2-0-4-4-4-4-4-4-4-0-4-4-4-4-4-4-4--|
--------------------------------------------------8--------------|-6-6b7~-6-4-------------7-6-7-----9---------9p7p6----------------|------------3----------------------------------------------------|-----------------------------------------------------------------|-----------------------------------------------------------------|-----------------------------------------------------------------|
This is basically the whole song, I spent a lot of time on this one and I think it turned out preety good. Enjoy. From, RYAN D. KEMP
Tap to rate this tab
 
# A B C D E F G H I J K L M N O P Q R S T U V W X Y Z