Arch Enemy – Nemesis tab ver. 2

All credit for this tab goes to ethereal sin. He originally tabbed it but I 
simplified it so I could learn it better and figured that some other people might find it useful.




Intro x8|-------------------------------------|----------------------------------||-------------------------------------|----------------------------------||-------------------------------------|----------------------------------||-0-0-0-0-12--0-0-0-13-0-0-0-0-0-15-0-|-0-0-13-0-0-0-0-0-0h10h12-0h8h10--||-------------------------------------|----------------------------------||-------------------------------------|----------------------------------|
| Verse x2
||------------------||-----------------|-----------------|--------------|||------------------||-----------------|-----------------|--------------|||------------------||-----------------|-----------------|--------------|||------3---2-----3-||---2-----0---0h2-|-----3---2-------|----3--5--6---|||------3---2-----3-||---2-----0---0h2-|-----3---2-------|-3--1--3--4---|||--0-0---0---0-0---||-0---0-0---0-----|-0-0---0---0-0-0-|-1------------|
|-----------------|-----------------||-----------------|-----------------||-----------------|-----------------||-----3---2-----3-|---2-----0---0h2-||-----3---2-----3-|---2-----0---0h2-||-0-0---0---0-0---|-0---0-0---0-----|
|-----------------|-------------|--------------|||-----------------|-------------|-------------o|||-----------------|-------------|--------------|||-----3---2-------|----3--5--6--|----6--8--9---|||-----3---2-------|-3--1--3--4--|-6--4--6--7--o|||-0-0---0---0-0-0-|-1-----------|-4------------||
Solo 1|-16b19----------------------------------||----------------------------------------||----------------------------------------||----------------------------------------||----------------------------------------||----------------------------------------|
|
|-(16)pb19--------------------------------||-------------------------<2>-------------||-----------------------------------------||-----------------------------------------||-----------------------------------------||-----------------------------------------|
|
|----------------------------------------||-(<2>)----------------------------------||----------------------------------------||----------------------------------------||----------------------------------------||----------------------------------------|
| |
|-----------------------------------------||-(<2>)--------(<2>)----------------------||-----------------------------------------||-----------------------------------------||-----------------------------------------||-----------------------------------------|
|-23-20---22---23---22----20---23---20---22-23-22---20---23---20---22---23----22---20-||-------------------------------------------------------------------------------------||-------------------------------------------------------------------------------------||-------------------------------------------------------------------------------------||-------------------------------------------------------------------------------------||-------------------------------------------------------------------------------------|
|
|-23-22---20----23---20---22---23---22---20----------------23-22---20----------------||-------------------------------------------23-22----20-----------------23----22-20--||------------------------------------------------------------------------------------||------------------------------------------------------------------------------------||------------------------------------------------------------------------------------||------------------------------------------------------------------------------------|
|
|-------------------------------------------------------------------------------------||-------------------------------------------------------------------------------------||-20-19---17-------------------20---19---17-------------------------------------------||--------------20---19----17----------------20-19---17--------------------------------||--------------------------------------------------------18---17---15-----------------||-----------------------------------------------------------------------18----17---15-|
|
|--------------------------------------||--------------------------------------||--------------------------------------||--------------------------------------||-15-----------------------------------||----18-17-15-14-----------------------|
|
Verse x2|-----------------||-----------------|-----------------|-------------||-----------------||-----------------|-----------------|-------------||-----------------||-----------------|-----------------|-------------||-----3---2-----3-||---2-----0---0h2-|-----3---2-------|----3--5--6--||-----3---2-----3-||---2-----0---0h2-|-----3---2-------|-3--1--3--4--||-0-0---0---0-0---||-0---0-0---0-----|-0-0---0---0-0-0-|-1-----------|
|-----------------|-----------------||-----------------|-----------------||-----------------|-----------------||-----3---2-----3-|---2-----0---0h2-||-----3---2-----3-|---2-----0---0h2-||-0-0---0---0-0---|-0---0-0---0-----|
|-----------------|-------------|-------------||-----------------|-------------|-------------||-----------------|-------------|-------------||-----3---2-------|----3--5--6--|----6--8--9--||-----3---2-------|-3--1--3--4--|-6--4--6--7--||-0-0---0---0-0-0-|-1-----------|-4-----------|
Chorus|------------------------------7---|-(7)---8---5------------------------||-/5---------------5---7---8-------|------------------------------------||----------------------------------|------------------------------------||----------------------------------|------------------------------------||----------------------------------|------------------------------------||----------------------------------|------------------------------------|
|
|-----------------------------5---|-(5)---7---3-----------------------||-3---------------3---5---7-------|---------------------------7-------||---------------------------------|-----------------------------------||---------------------------------|-----------------------------------||---------------------------------|-----------------------------------||---------------------------------|-----------------------------------|
|
|------------------------------7---||-/5---------------5---7---8-------||----------------------------------||----------------------------------||----------------------------------||----------------------------------|
|-(7)-----8-----5----------------------(5)----10p=8h=||----------------------------------------------------||----------------------------------------------------||----------------------------------------------------||----------------------------------------------------||----------------------------------------------------|
|
|-10--------------------------10-------||---------------8---(8)----------------||--------------------------------------||--------------------------------------||--------------------------------------||--------------------------------------|
|-/12---------------------------------------||-------------------------------------------||-------------------------------------------||-------------------------------------------||-------------------------------------------||-------------------------------------------|
|
Pre-Solo(Play Once)|------------------------------------|----------------------------------||------------------------------------|----------------------------------||------------------------------------|----------------------------------||-0-0-0-0-12-0-0-0-13-0-0-0-0-0-15-0-|-0-0-13-0-0--0-0-0-0-10-12-0-8-10-||------------------------------------|----------------------------------||------------------------------------|----------------------------------|
Solo 2|----------------------------------------||-13b15----------------------------------||----------------------------------------||----------------------------------------||----------------------------------------||----------------------------------------|
|-----------------------------------------------||-(13)pb15----------------13-------11-----10----||-----------------------------------------------||-----------------------------------------------||-----------------------------------------------||-----------------------------------------------|
|
|-------------------------------------------------||-20-19-------20-19-------20-19-------20-19-------||-------20-19-------20-19-------20-19-------20-19-||-------------------------------------------------||-------------------------------------------------||-------------------------------------------------|
|
|-------------------------------------------------||-22-19-------22-19-------22-19-------22-19-------||-------20-19-------20-19-------20-19-------20-19-||-------------------------------------------------||-------------------------------------------------||-------------------------------------------------|
|
|-22-18-------------22-18-------------22-18-------||-------22-19-------------22-19-------------22-19-||-------------20-19-------------20-19-------------||-------------------------------------------------||-------------------------------------------------||-------------------------------------------------|
|------22---(22)b23----------------------||----------------------------------------||-20-------------------------------------||----------------------------------------||----------------------------------------||----------------------------------------|
Verse x2|---------------------||------------------------||---------------------||------------------------||---------------------||------------------------||---------3---2-----3-||----------2-----0---0h2-||---------3---2-----3-||----------2-----0---0h2-||--0----0---0---0-0---||---0--------0-0---0-----|
|-----------------|-------------||-----------------|-------------||-----------------|-------------||-----3---2-------|----3--5--6--||-----3---2-------|-3--1--3--4--||-0-0---0---0-0-0-|-1-----------|
|-----------------|-----------------||-----------------|-----------------||-----------------|-----------------||-----3---2-----3-|---2-----0---0h2-||-----3---2-----3-|---2-----0---0h2-||-0-0---0---0-0---|-0---0-0---0-----|
|-----------------|-------------|-------------||-----------------|-------------|-------------||-----------------|-------------|-------------||-----3---2-------|----3--5--6--|----6--8--9--||-----3---2-------|-3--1--3--4--|-6--4--6--7--||-0-0---0---0-0-0-|-1-----------|-4-----------|
Repeat Chorus Breakdown
PM----------------------------------------------------------------------| |-------------------------------------|---------------------------------------||-------------------------------------|---------------------------------------||-------------------------------------|---------------------------------------||-------------------------------------|---------------------------------------||-------------------------------------|---------------------------------------||-0-0-0-0-0-0-0-0-0-0-0-0-0-0-0-0-0-0-|-0-0-0-0-0-0-0-0-0-0-0-0-0-0-0-0-0-0---|
|-------------------------------------||-------------------------------------||-------------------------------------||-------------------------------------||-------------------------------------||-0-0-0-0-0-0-0-0-0-0-0-0-0-0-0-0-0-0-|
|
|----------------------------------------------||----------------------------------------------||----------------------------------------------||----------------------------------------------||----------------------------------------------||-0-0-0---0-0-0---0-0-0---0-0-0---0-0-0--0--0--|
|
|----------------------------------------------||----------------------------------------------||----------------------------------------------||----------------------------------------------||----------------------------------------------||-0-0-0---0-0-0---0-0-0---0-0-0---0-0-0-12\----|
PM-----------------------------------||--------------------------------------| ||o-------------------------------------| ||--------------------------------------|||-x2-----------------------------------|||o-------------------------------------|||--0-0-0-0-0-0-0-0-0-0-0-0-0-0-0-0-0-0-|
|---------------------------------------|||----------------------9-12-11-9-------o|||-----------4---7-10-9-----------11-9---|||---------6---8-------------------------|||---5-8-7------------------------------o|||-6-------------------------------------||
Chorus x2
|----------------7-|-(7)-8-5------------||-/5-------5-7-8---|--------------------||------------------|--------------------||------------------|--------------------||------------------|--------------------||------------------|--------------------|
|
|----------------7-|-(7)-8-5-------(5)-10p8h=||-/5-------5-7-8---|-------------------------||------------------|-------------------------||------------------|-------------------------||------------------|-------------------------||------------------|-------------------------|
|
|-10--------------10---|-/12-------14b15-------||---------8-(8)--------|-----------------------||----------------------|-----------------------||----------------------|-----------------------||----------------------|-----------------------||----------------------|-----------------------|
Solo 3 |-(14)pb15-----------------------------------||--------------------------------------------||--------------------------------------------||--------------------------------------------||--------------------------------------------||--------------------------------------------|
| |
|-(10)----11-----------------------------------------||---------------13-----------------------------------||----------------------------------------------------||----------------------------------------------------||----------------------------------------------------||----------------------------------------------------|
|
|---------------------------------------||-----------------------------10---13---||-/10---------------10---12-------------||---------------------------------------||---------------------------------------||---------------------------------------|
|
|---------10----------------------------------------||-(13)----------11----------------------10----------||---------------------------------------------------||---------------------------------------------------||---------------------------------------------------||---------------------------------------------------|
|----------------------------------10---||------------------------10---11--------||-/12---------------12------------------||---------------------------------------||---------------------------------------||---------------------------------------|
|
|-(10)----11------------------------------------13p11-||---------------13----------------------(13)----------||-----------------------------------------------------||-----------------------------------------------------||-----------------------------------------------------||-----------------------------------------------------|
|
|-13----------------------------13-------|-/15---------||---------------11---(11)----------------|-------------||----------------------------------------|-------------||----------------------------------------|-------------||----------------------------------------|-------------||----------------------------------------|-------------|
Outro Lead|-----------------------------------------------------------||-----------------------------------------------------------||-14b15----------------------14-(14)b15-(14)-14-14----15----||-----------------------------------------------------------||-----------------------------------------------------------||-----------------------------------------------------------|
| |
|--------------------------------------------------------||-15-----------------------------------------------------||-------15----14----------14----15----14-15----14--------||-------------------------------------------------17-----||--------------------------------------------------------||--------------------------------------------------------|
|
|---------------------------------------------------------||---------------------------------------------------------||---------------------------------------------------------||-15----------------------(15)-------12----------15-------||---------------------------------------------------------||---------------------------------------------------------|
|
|--------------------------------------15----------17--------||------------------------------------------------------------||-14----12----(12)----------(12)-----------------------------||----15------------------------------------------------------||------------------------------------------------------------||------------------------------------------------------------|
| |
|-18-----------------17----18-------17----22-------18----||--------------------------------------------------------||--------------------------------------------------------||--------------------------------------------------------||--------------------------------------------------------||--------------------------------------------------------|
|
|-17---------------------------------------------------------||----------20----18----------(18)-------------------18-------||---------------------------------------19-------------------||------------------------------------------------------------||------------------------------------------------------------||------------------------------------------------------------|
|
|-------------------18------------------------------------------------------||-18----(18)b20----(18)pb20----18b20----------15----18----15h18p===15-------||---------------------------------------------------------------------17----||---------------------------------------------------------------------------||---------------------------------------------------------------------------||---------------------------------------------------------------------------|
|----------------------||----------------------||-17b19----(17)pb19----||----------------------||----------------------||----------------------|
|
Outro|------------------------------------|----------------------------------||------------------------------------|----------------------------------||------------------------------------|----------------------------------||-0-0-0-0-12-0-0-0-13-0-0-0-0-0-15-0-|-0-0-13-0-0--0-0-0-0h10h12-0h8h10-||------------------------------------|----------------------------------||------------------------------------|----------------------------------|
|---------------------------------|---------------------||---------------------------------|---------------------||---------------------------------|---------------------||-0h16-17-0h13h16-0h12-13-0h10h12-|-0h8h10-0h7-8--------||---------------------------------|--------------10-----||---------------------------------|---------------------|
|
Please rate this tab:
x1.0