Architects - Youll Find Safety tab

ARCHITECTS - YOU'LL FIND SAFETY (Ruin)

DROP B TUNING - B F# B E G# C#



--0--------------------|-----------------|--0-------4----4-------|--16--16--16-----|--0-------7----7-------|--19--19--19-----|-----------------------|-----------------|-----------------------|-----------------|-------0------------0--|--------------0--| PM- - -
--0--------------------|-----------------|--------------------|--0-------4----4-------|--16--16--16-----|--------------------|--0-------7----7-------|--19--19--19-----|--------------------|-----------------------|-----------------|--------------------|-----------------------|-----------------|--6--------5--------|-------0------------0--|--------------0--|-----4--0-----4--0--| PM- - -
--0--------------------|-----------------|-----------------------------------|--0-------4----4-------|--16--16--16-----|-----------------------------------|--0-------7----7-------|--19--19--19-----|-----------------------------------|-----------------------|-----------------|-----------------------------------|-----------------------|-----------------|--6--------5--------3-----2--------|-------0------------0--|--------------0--|-----4--0-----4--0-----4-----4--0--| PM- - -
--------------------------|--------------------------------|--------------------------|--------------------------------|--------------------------|--------------------------------|--------------------------|--------------------------------|--6--------------2--------|--5--------------6--------2-----|-----4--0--1--4-----4--0--|-----4--0--1--4-----4--0-----4--|
Gtr I--------------------------|------------------|--------------------------|------------------|--------------------------|------------------|--------------------------|---------9--6-----|--5--------------2--------|--11--8--------8--|-----4--0--1--4-----4--0--|------------------|
Gtr II--------------------------|-----------------|--------------------------|-----------------|--------------------------|-----------------|--------------------------|--------6--3-----|--5--------------2--------|--8--5--------5--|-----4--0--1--4-----4--0--|-----------------|
Gtr I--------------------------|------------------|-------------------|--------------------------|------------------|-------------------|--------------------------|------------------|---------10--7-----|--------------------------|---------9--6-----|--12--9---------9--|--6--------------2--------|--11--8--------8--|-------------------|-----4--0--1--4-----4--0--|------------------|-------------------|
Gtr II--------------------------|-----------------|-----------------|--------------------------|-----------------|-----------------|--------------------------|-----------------|--------7--4-----|--------------------------|--------6--3-----|--9--6--------6--|--6--------------2--------|--8--5--------5--|-----------------|-----4--0--1--4-----4--0--|-----------------|-----------------|
Gtr I--13--10------10----------|------------------|----------12------12------|------------------|----------------------13--|------------------|--------------------------|---------9--6-----|--------------------------|--11--8--------8--|--------------------------|------------------|
Gtr II--10--7-----7---------|-----------------|---------9-----9------|-----------------|------------------10--|-----------------|----------------------|--------6--3-----|----------------------|--8--5--------5--|----------------------|-----------------|
Gtr I--13--10------------------|--17--14--16--13------------------|--------------12----------|----------------------15----------|----------13------13--10--|------------------16------16--13--|--------------------------|----------------------------------|--------------------------|----------------------------------|--------------------------|----------------------------------|
Gtr II--10--7----------------|--14--11--13--10------------------|-------------9---------|----------------------12----------|---------10-----10--7--|------------------13------13--10--|-----------------------|----------------------------------|-----------------------|----------------------------------|-----------------------|----------------------------------|
Gtr I--13--10------------------|--17--14--16--13----------|------------------|--------------12----------|----------------------15--|------15----------|----------13------13--10--|------------------16------|--16------16--13--|--------------------------|--------------------------|------------------|--------------------------|--------------------------|------------------|--------------------------|--------------------------|------------------|
Gtr II--10--7----------------|--14--11--13--10----------|------------------|-------------9---------|----------------------12--|------12----------|---------10-----10--7--|------------------13------|--13------13--10--|-----------------------|--------------------------|------------------|-----------------------|--------------------------|------------------|-----------------------|--------------------------|------------------|
-------------------|-------------------|-------------------|-------------------|-------------------|--0----------------|
Gtr I--0-----------------------|-----------------------------|--0-----------------4--4--|--4--------------------------|--0-----------------7--7--|--7--------------------------|--------------------------|-----------------------------|--------------------------|-----------------------------|-------0--1/-----0--------|-----0--0--0--0--0--0--0--0--|
PM- ---------------------- |--3--|
--0-----------------------|--------------------------|--0-----------------4--4--|--4--------4--4-----------|--0-----------------7--7--|--7--------7--7-----------|--------------------------|--------------------------|--------------------------|--------------------------|-------0--1/-----0--------|-----0--0--------0--0--0--| PM- ---- -------
Gtr I--0-----------------------|-----------------------------|--0-----------------4--4--|--4--------------------------|--0-----------------7--7--|--7--------------------------|--------------------------|-----------------------------|--------------------------|-----------------------------|-------0--1/-----0--------|-----0--0--0--0--0--0--0--0--|
PM- ---------------------- |--3--|
--0-----------------------|--------------------------|--0-----------------4--4--|--4--------4--4-----------|--0-----------------7--7--|--7--------7--7-----------|--------------------------|--------------------------|--------------------------|--------------------------|-------0--1/-----0--------|-----0--0--------0--0--0--| PM- ---- -------
--0-----------------------|-----------------------------|--0-----------------4--4--|--4--------------------------|--0-----------------7--7--|--7--------------------------|--------------------------|-----------------------------|--------------------------|-----------------------------|-------0--1/-----0--------|-----0--0--0--0--0--0--0--0--|
PM- ---------------------- |--3--|
--0-----------------------|--------------------------|--0-----------------4--4--|--4--------4--4-----------|--0-----------------7--7--|--7--------7--7-----------|--------------------------|--------------------------|--------------------------|--------------------------|-------0--1/-----0--------|-----0--0--------0--0--0--| PM- ---- -------
--0-----------------------|-----------------------------|--0-----------------4--4--|--4--------------------------|--0-----------------7--7--|--7--------------------------|--------------------------|-----------------------------|--------------------------|-----------------------------|-------0--1/-----0--------|-----0--0--0--0--0--0--0--0--|
PM- ---------------------- |--3--|
--0-----------------------|--------------------------|--0-----------------4--4--|--4--------4--4-----------|--0-----------------7--7--|--7--------7--7-----------|--------------------------|--------------------------|--------------------------|--------------------------|-------0--1/-----0--------|-----0--0--------0--0--0--| PM- ---- -------
--------------------------|--------------------------|--------------------------|--------------------------|--------------------------|--------------------------|--------------------------|--------------------------|--2--------6-----2--------|--6-----2--------5-----2--|-----4--0-----------4--0--|-----------4--0-----------|
-----------------------|--------------------------|-----------------------|--------------------------|-----------------------|--------------------------|-----------------------|--------------------------|--------6-----2--------|--6--------5--------3-----|--4--0-----------4--0--|-----4--0-----4--0-----4--|
--------------------------|--------------------------|--------------------------|--------------------------|--------------------------|--------------------------|--------------------------|--------------------------|--2--------6-----2--------|--6-----2--------5-----2--|-----4--0-----------4--0--|-----------4--0-----------|
-----------------------|--------------------------|-----------------------|--------------------------|-----------------------|--------------------------|-----------------------|--------------------------|--------6-----2--------|--6--------5--------3-----|--4--0-----------4--0--|-----4--0-----4--0-----4--|
--------------------------|--------------------------------|--------------------------|--------------------------------|--------------------------|--------------------------------|--------------------------|--------------------------------|--6--------------2--------|--5--------------6--------2-----|-----4--0--1--4-----4--0--|-----4--0--1--4-----4--0-----4--|
Gtr I--------------------------|------------------|--------------------------|------------------|--------------------------|------------------|--------------------------|---------9--6-----|--5--------------2--------|--11--8--------8--|-----4--0--1--4-----4--0--|------------------|
Gtr II--------------------------|-----------------|--------------------------|-----------------|--------------------------|-----------------|--------------------------|--------6--3-----|--5--------------2--------|--8--5--------5--|-----4--0--1--4-----4--0--|-----------------|
Gtr I--------------------------|------------------|-------------------|--------------------------|------------------|-------------------|--------------------------|------------------|---------10--7-----|--------------------------|---------9--6-----|--12--9---------9--|--6--------------2--------|--11--8--------8--|-------------------|-----4--0--1--4-----4--0--|------------------|-------------------|
Gtr II--------------------------|-----------------|-----------------|--------------------------|-----------------|-----------------|--------------------------|-----------------|--------7--4-----|--------------------------|--------6--3-----|--9--6--------6--|--6--------------2--------|--8--5--------5--|-----------------|-----4--0--1--4-----4--0--|-----------------|-----------------|
--------------------|-----------------------------|--------------------|-----------------------------|--7--4-----4--------|--11--8--10--7-----7---------|--------6-----6-----|----------------9-----9------|-----------------8--|-------------------------11--|--------------------|-----------------------------|PM----------------------------------------------
--------------------|----------------------|---------------|--------------------|----------------------|---------------|--7--4-----4--------|--11--8--10--7-----7--|-----7---------|--------6-----6-----|----------------9-----|--9-----9------|-----------------8--|----------------------|-----------11--|--------------------|----------------------|---------------|PM-------------------------------------------------------
--------------------|-----------------------------|--------------------|-----------------------------|--7--4-----4--------|--11--8--10--7-----7---------|--------6-----6-----|----------------9-----9------|-----------------8--|-------------------------11--|--------------------|-----------------------------|PM----------------------------------------------
--------------------|----------------------|---------------|--------------------|----------------------|---------------|--7--4-----4--------|--11--8--10--7-----7--|-----7---------|--------6-----6-----|----------------9-----|--9-----9------|-----------------8--|----------------------|-----------11--|--------------------|----------------------|---------------|PM-------------------------------------------------------
Gtr I----------------------|----------------------------------|----------------------|----------------------------------|--10--7-----7---------|--14--11--13--10------10----------|---------9-----9------|------------------12------12------|------------------11--|------------------------------14--|----------------------|----------------------------------|PM------------------------------------------------------
Gtr II--------------------|-----------------------------|--------------------|-----------------------------|--7--4-----4--------|--11--8--10--7-----7---------|--------6-----6-----|----------------9-----9------|-----------------8--|-------------------------11--|--------------------|-----------------------------|PM----------------------------------------------
Gtr I----------------------|--------------------------|------------------|----------------------|--------------------------|------------------|--10--7-----7---------|--14--11--13--10------10--|------10----------|---------9-----9------|------------------12------|--12------12------|------------------11--|--------------------------|--------------14--|----------------------|--------------------------|------------------|PM----------------------------------------------------------------
Gtr II--------------------|----------------------|---------------|--------------------|----------------------|---------------|--7--4-----4--------|--11--8--10--7-----7--|-----7---------|--------6-----6-----|----------------9-----|--9-----9------|-----------------8--|----------------------|-----------11--|--------------------|----------------------|---------------|PM-------------------------------------------------------
Gtr I--------------------------------------|----------------------------------|-----------12--9----------15--12------|----------------------------------|--7--4------------10--------------13--|--10----------------------10--13--|--------6-------------12--------------|------12--------------12----------|--------------------------------------|----------14--11--14--------------|--------------------------------------|----------------------------------|
Gtr II--------------------------------------|-------------------------------|---------------------------12--9------|-------------------------------|-----------13--10-----------------10--|---------------------------10--|--9--6-------------12-----------------|--12--9-------------9--12------|--------8--------------14-------------|---------11--8--11-------------|--------------------------------------|-------------------------------|
Gtr I------10--13--10------------------|----------------------10--|--12--------------12--------------|------------------12------|----------------------13--10------|----------10--13----------|------------------------------12--|------12------------------|----------------------------------|--14----------------------|----------------------------------|--------------------------|
Gtr II-----7--10--7---------------|-------------------7--|--9------------9------------|----------------9-----|------------------10--7-----|---------7--10--------|-------------------------9--|------9---------------|----------------------------|--11------------------|----------------------------|----------------------|
Gtr I--0-----------------------|--------------------------|--0-----------------4--4--|--4--------4--4-----------|--0-----------------7--7--|--7--------7--7-----------|--------------------------|--------------------------|--------------------------|--------------------------|-------0--1/-----0--------|-----0--0--------0--0--0--|
PM- ---- -------Gtr II--------------------------|-----------0--------|--------------------------|-----------0--------|--------------------------|-----------0--------|--------------------------|--------------------|--------------------------|--------------------|--------------------------|--------------------|
--0-----------------------|-----------------------------|--0-----------------4--4--|--4--------------------------|--0-----------------7--7--|--7--------------------------|--------------------------|-----------------------------|--------------------------|-----------------------------|-------0--1/-----0--------|-----0--0--0--0--0--0--0--0--|
PM- ---------------------- |--3--|
--0-----------------------|--------------------------|--0-----------------4--4--|--4--------4--4-----------|--0-----------------7--7--|--7--------7--7-----------|--------------------------|--------------------------|--------------------------|--------------------------|-------0--1/-----0--------|-----0--0--------0--0--0--| PM- ---- -------
--0-----------------------|-----------------------------|--0-----------------4--4--|--4--------------------------|--0-----------------7--7--|--7--------------------------|--------------------------|-----------------------------|--------------------------|-----------------------------|-------0--1/-----0--------|-----0--0--0--0--0--0--0--0--|
PM- ---------------------- |--3--|
--0-----------------------|--------------------------|--0-----------------4--4--|--4--------4--4-----------|--0-----------------7--7--|--7--------7--7-----------|--------------------------|--------------------------|--------------------------|--------------------------|-------0--1/-----0--------|-----0--0--------0--0--0--| PM- ---- -------
--13--13--------------------|--13--13--13-----------------|----------------------------|-----------------------------|---9---9--------------------|---9---9---9-----------------|----------------------------|-----------------------------|----------------------------|-----------------------------|----------0--0--0--0--0--0--|--------------0--0--0--0--0--| PM---------------- -------------
-----------------------------|--13--13--13--13--12--12--12--12--|-----------------------------|----------------------------------|-----------------------------|---9---9---9---9---9---9---9---9--|-----------------------------|----------------------------------|-----------------------------|----------------------------------|--0--0--0--0--0--0--0--0--0--|----------------------------------|
PM------------------------- |--3--|
----------------------------|-----------------------------|----------------------------|-----------------------------|----------------------------|-----------------------------|----------------------------|-----------------------------|--11--11--------------------|--11--11--11-----------------|--11--11--0--0--0--0--0--0--|--11--11--11--0--0--0--0--0--| PM---------------- -------------
-----------------------------|------------------------------|-----------------------------|------------------------------|-----------------------------|------------------------------|-----------------------------|--10--10--10--10--9--9--9--9--|-----------------------------|---8---8---8---8--7--7--7--7--|--0--0--0--0--0--0--0--0--0--|------------------------------|
PM------------------------- |--3--|
--13--13--------------------|--13--13--13-----------------|----------------------------|-----------------------------|---9---9--------------------|---9---9---9-----------------|----------------------------|-----------------------------|----------------------------|-----------------------------|----------0--0--0--0--0--0--|--------------0--0--0--0--0--| PM---------------- -------------
-----------------------------|--13--13--13--13--12--12--12--12--|-----------------------------|----------------------------------|-----------------------------|---9---9---9---9---9---9---9---9--|-----------------------------|----------------------------------|-----------------------------|----------------------------------|--0--0--0--0--0--0--0--0--0--|----------------------------------|
PM------------------------- |--3--|
----------------------------|-----------------------------|----------------------------|-----------------------------|----------------------------|-----------------------------|----------------------------|-----------------------------|--11--11--------------------|--11--11--11-----------------|--11--11--0--0--0--0--0--0--|--11--11--11--0--0--0--0--0--| PM---------------- -------------
Gtr I----------------------------------|--------------------------|----------------------------------|--------------------------|----------------------------------|--------------------------|--10--10--10--10--10--10--10--10--|--9--9--9--9--9--9--7--9--|---8---8---8---8---8---8---8---8--|--7--7--7--7--7--7--5--7--|----------------------------------|--------------------------|
Gtr II-----------------------------------|--------------------------|-----------------------------------|--------------------------|-----------------------------------|--------------------------|-----------10--10--10--10--10--10--|--9--9--9--9--9--9--7--9--|------------8---8---8---8---8---8--|--7--7--7--7--7--7--5--7--|--0--0--0--------------------------|--------------------------|
PM------- |--3--|
Gtr I--13--13--13--13--13--13--13--13--|--13--13--13--13--13--13--13--13--|----------------------------------|----------------------------------|--10--10--10--10--10--10--10--10--|--10--10--10--10--10--10--10--10--|----------------------------------|----------------------------------|----------------------------------|----------------------------------|----------------------------------|----------------------------------|
Gtr II--------------------------|--------------------------|--------------------------|--------------------------|--2--2--2--2--2--2--2--2--|--2--2--2--2--2--2--2--2--|--3--3--3--3--3--3--3--3--|--3--3--3--3--3--3--3--3--|--0--0--0--0--0--0--0--0--|--0--0--0--0--0--0--0--0--|--0--0--0--0--0--0--0--0--|--0--0--0--0--0--0--0--0--|
Gtr I--12--12--12--12--12--12--12--12--|--12--12--12--12--12--12--12--12--|----------------------------------|----------------------------------|---9---9---9---9---9---9---9---9--|---9---9---9---9---9---9---9---9--|----------------------------------|----------------------------------|----------------------------------|----------------------------------|----------------------------------|----------------------------------|
Gtr II--------------------------|--------------------------|--------------------------|--------------------------|--2--2--2--2--2--2--2--2--|--2--2--2--2--2--2--2--2--|--2--2--2--2--2--2--2--2--|--2--2--2--2--2--2--2--2--|--0--0--0--0--0--0--0--0--|--0--0--0--0--0--0--0--0--|--0--0--0--0--0--0--0--0--|--0--0--0--0--0--0--0--0--|
Gtr I--13--13--13--13--13--13--13--13--|--13--13--13--13--13--13--13--13--|----------------------------------|----------------------------------|--10--10--10--10--10--10--10--10--|--10--10--10--10--10--10--10--10--|----------------------------------|----------------------------------|----------------------------------|----------------------------------|----------------------------------|----------------------------------|
Gtr II--------------------------|--------------------------|--------------------------|--------------------------|--5--5--5--5--5--5--5--5--|--5--5--5--5--5--5--5--5--|--3--3--3--3--3--3--3--3--|--3--3--3--3--3--3--3--3--|--3--3--3--3--3--3--3--3--|--3--3--3--3--3--3--3--3--|--3--3--3--3--3--3--3--3--|--3--3--3--3--3--3--3--3--|
Gtr I--12--12--12--12--12--12--12--12--|--12--12--12--12--12--12--12--12--|----------------------------------|----------------------------------|---9---9---9---9---9---9---9---9--|---9---9---9---9---9---9---9---9--|----------------------------------|----------------------------------|----------------------------------|----------------------------------|----------------------------------|----------------------------------|
Gtr II--------------------------|--------------------------|--------------------------|--------------------------|--5--5--5--5--5--5--5--5--|--5--5--5--5--5--5--5--5--|--3--3--3--3--3--3--3--3--|--3--3--3--3--3--3--3--3--|--3--3--3--3--3--3--3--3--|--3--3--3--3--3--3--3--3--|--2--2--2--2--2--2--2--2--|--2--2--2--2--2--2--2--2--|
Gtr I--13--13--13--13--13--13--13--13--|--13--13--13--13--13--13--13--13--|----------------------------------|----------------------------------|--10--10--10--10--10--10--10--10--|--10--10--10--10--10--10--10--10--|----------------------------------|----------------------------------|----------------------------------|----------------------------------|----------------------------------|----------------------------------|
Gtr II----------------------------------|----------------------------------|----------------------------------|----------------------------------|--10--10--10--10--10--10--10--10--|--10--10--10--10--10--10--10--10--|---8---8---8---8---8---8---8---8--|---8---8---8---8---8---8---8---8--|---8---8---8---8---8---8---8---8--|---8---8---8---8---8---8---8---8--|---8---8---8---8---8---8---8---8--|---8---8---8---8---8---8---8---8--|
Gtr I--12--12--12--12--12--12--12--12--|--12--12--12--12--12--12--12--12--|----------------------------------|----------------------------------|---9---9---9---9---9---9---9---9--|---9---9---9---9---9---9---9---9--|----------------------------------|----------------------------------|----------------------------------|----------------------------------|----------------------------------|----------------------------------|
Gtr II--------------------------|--------------------------|--------------------------|--------------------------|--9--9--9--9--9--9--9--9--|--9--9--9--9--9--9--9--9--|--8--8--8--8--8--8--8--8--|--8--8--8--8--8--8--8--8--|--8--8--8--8--8--8--8--8--|--8--8--8--8--8--8--8--8--|--8--8--8--8--8--8--8--8--|--8--8--8--8--8--8--8--8--|
--------------------------|-----------------------------|--------------------------|--------------------------4--|--------------------------|--------------------------7--|--------------------------|-----------------------------|--------------------------|-----------------------------|--0--0--0--0--0--0--0--0--|--0--0--0--0--0--0--0--0-----|
PM---------------------------------------------- |--3--|
-----------------------------|--------------------------|--4-----------------------4--|--4--------4--4-----------|--7-----------------------7--|--7--------7--7-----------|-----------------------------|--------------------------|-----------------------------|--------------------------|-----0--0--0--0--0--0--0-----|-----0--0--------0--0--0--|
PM------------------- ---- ------- |--3--|
Gtr I--13--13--13--13--13--13--13--13--|--13--13--13--13--13--13--13--13--|----------------------------------|----------------------------------|--10--10--10--10--10--10--10--10--|--10--10--10--10--10--10--10--10--|----------------------------------|----------------------------------|----------------------------------|----------------------------------|----------------------------------|----------------------------------|
Gtr II--------------------------|--------------------------|--------------------------|--------------------------|--2--2--2--2--2--2--2--2--|--2--2--2--2--2--2--2--2--|--3--3--3--3--3--3--3--3--|--3--3--3--3--3--3--3--3--|--0--0--0--0--0--0--0--0--|--0--0--0--0--0--0--0--0--|--0--0--0--0--0--0--0--0--|--0--0--0--0--0--0--0--0--|
Gtr I--12--12--12--12--12--12--12--12--|--12--12--12--12--12--12--12--12--|----------------------------------|----------------------------------|---9---9---9---9---9---9---9---9--|---9---9---9---9---9---9---9---9--|----------------------------------|----------------------------------|----------------------------------|----------------------------------|----------------------------------|----------------------------------|
Gtr II--------------------------|--------------------------|--------------------------|--------------------------|--2--2--2--2--2--2--2--2--|--2--2--2--2--2--2--2--2--|--2--2--2--2--2--2--2--2--|--2--2--2--2--2--2--2--2--|--0--0--0--0--0--0--0--0--|--0--0--0--0--0--0--0--0--|--0--0--0--0--0--0--0--0--|--0--0--0--0--0--0--0--0--|
Gtr I--13--13--13--13--13--13--13--13--|--13--13--13--13--13--13--13--13--|----------------------------------|----------------------------------|--10--10--10--10--10--10--10--10--|--10--10--10--10--10--10--10--10--|----------------------------------|----------------------------------|----------------------------------|----------------------------------|----------------------------------|----------------------------------|
Gtr II--------------------------|--------------------------|--------------------------|--------------------------|--5--5--5--5--5--5--5--5--|--5--5--5--5--5--5--5--5--|--3--3--3--3--3--3--3--3--|--3--3--3--3--3--3--3--3--|--3--3--3--3--3--3--3--3--|--3--3--3--3--3--3--3--3--|--3--3--3--3--3--3--3--3--|--3--3--3--3--3--3--3--3--|
Gtr I--12--12--12--12--12--12--12--12--|--12--12--12--12--12--12--12--12--|----------------------------------|----------------------------------|---9---9---9---9---9---9---9---9--|---9---9---9---9---9---9---9---9--|----------------------------------|----------------------------------|----------------------------------|----------------------------------|----------------------------------|----------------------------------|
Gtr II--------------------------|--------------------------|--------------------------|--------------------------|--5--5--5--5--5--5--5--5--|--5--5--5--5--5--5--5--5--|--3--3--3--3--3--3--3--3--|--3--3--3--3--3--3--3--3--|--3--3--3--3--3--3--3--3--|--3--3--3--3--3--3--3--3--|--2--2--2--2--2--2--2--2--|--2--2--2--2--2--2--2--2--|
Gtr I--13--13--13--13--13--13--13--13--|--13--13--13--13--13--13--13--13--|----------------------------------|----------------------------------|--10--10--10--10--10--10--10--10--|--10--10--10--10--10--10--10--10--|----------------------------------|----------------------------------|----------------------------------|----------------------------------|----------------------------------|----------------------------------|
Gtr II----------------------------------|----------------------------------|----------------------------------|----------------------------------|--10--10--10--10--10--10--10--10--|--10--10--10--10--10--10--10--10--|---8---8---8---8---8---8---8---8--|---8---8---8---8---8---8---8---8--|---8---8---8---8---8---8---8---8--|---8---8---8---8---8---8---8---8--|---8---8---8---8---8---8---8---8--|---8---8---8---8---8---8---8---8--|
Gtr I--12--12--12--12--12--12--12--12--|--12--12--12--12--12--12--12--12--|----------------------------------|----------------------------------|---9---9---9---9---9---9---9---9--|---9---9---9---9---9---9---9---9--|----------------------------------|----------------------------------|----------------------------------|----------------------------------|----------------------------------|----------------------------------|
Gtr II--------------------------|--------------------------|--------------------------|--------------------------|--9--9--9--9--9--9--9--9--|--9--9--9--9--9--9--9--9--|--8--8--8--8--8--8--8--8--|--8--8--8--8--8--8--8--8--|--8--8--8--8--8--8--8--8--|--8--8--8--8--8--8--8--8--|--8--8--8--8--8--8--8--8--|--8--8--8--8--8--8--8--8--|
--------------------------|-----------------------------|--------------------------|--------------------------4--|--------------------------|--------------------------7--|--------------------------|-----------------------------|--------------------------|-----------------------------|--0--0--0--0--0--0--0--0--|--0--0--0--0--0--0--0--0-----|
PM---------------------------------------------- |--3--|
-----------------------------|--------------------------|--4-----------------------4--|--4--------4--4-----------|--7-----------------------7--|--7--------7--7-----------|-----------------------------|--------------------------|-----------------------------|--------------------------|-----0--0--0--0--0--0--0-----|-----0--0--------0--0--0--| PM------------------- ---- -------
--------------------------|-----------------------------|--------------------------|--------------------------4--|--------------------------|--------------------------7--|--------------------------|-----------------------------|--------------------------|-----------------------------|--0--0--0--0--0--0--0--0--|--0--0--0--0--0--0--0--0-----|
PM---------------------------------------------- |--3--|
-----------------------------|--------------------------|--4-----------------------4--|--4--------4--4-----------|--7-----------------------7--|--7--------7--7-----------|-----------------------------|--------------------------|-----------------------------|--------------------------|-----0--0--0--0--0--0--0-----|-----0--0--------0--0--0--| PM------------------- ---- -------
--0----------------|-----------|--0----------------|-----------|--0----------------|-----------|--0----------------|-----------|--0----------------|-----------|--0----------------|-----------|-------------------|-----------|-------------------|-----------|-------------------|-----------|-------------------|-----------|-------------------|-----------|-------------------|-----------|
--0----------------|-----------|--0----------------|-----------|--0----------------|-----------|--0----------------|-----------|--0----------------|-----------|--0----------------|-----------|-------------------|-----------|-------------------|-----------|-------------------|-----------|-------------------|-----------|-------------------|-----------|-------------------|-----------|
-----------|-----------|-----------|-----------|-----------|-----------|
--0--------------------|-----------------|--0-------4----4-------|--16--16--16-----|--0-------7----7-------|--19--19--19-----|-----------------------|-----------------|-----------------------|-----------------|-------0------------0--|--------------0--| PM- - -
--0--------------------|-----------------|--0-------4----4-------|--16--16--16-----|--0-------7----7-------|--19--19--19-----|-----------------------|-----------------|-----------------------|-----------------|-------0------------0--|--------------0--| PM- - -
--0--------------------|-----------------|--0-------4----4-------|--16--16--16-----|--0-------7----7-------|--19--19--19-----|-----------------------|-----------------|-----------------------|-----------------|-------0------------0--|--------------0--| PM- - -
Gtr I--0--------------------|-----------------|-0---------------|--0-------4----4-------|--16--16--16-----|-0---------------|--0-------7----7-------|--19--19--19-----|-0---------------|-----------------------|-----------------|-----------------|-----------------------|-----------------|-----------------|-------0------------0--|--------------0--|-----------------|
Gtr II--0--------------------|-----------------|-----------------|--0-------4----4-------|--16--16--16-----|-----------------|--0-------7----7-------|--19--19--19-----|-----------------|-----------------------|-----------------|-----------------|-----------------------|-----------------|-----------------|-------0------------0--|--------------0--|-----------------| PM- - -
--0--------------------|-----------------|--0-------4----4-------|--16--16--16-----|--0-------7----7-------|--19--19--19-----|-----------------------|-----------------|-----------------------|-----------------|-------0------------0--|--------------0--| PM- - -
--0--------------------|-----------------|--0-------4----4-------|--16--16--16-----|--0-------7----7-------|--19--19--19-----|-----------------------|-----------------|-----------------------|-----------------|-------0------------0--|--------------0--| PM- - -
--0--------------------|-----------------|--0-------4----4-------|--16--16--16-----|--0-------7----7-------|--19--19--19-----|-----------------------|-----------------|-----------------------|-----------------|-------0------------0--|--------------0--| PM- - -
--0--------------------|-----------------|--------------------------|--0-------4----4-------|--16--16--16-----|--------------------------|--0-------7----7-------|--19--19--19-----|--------------------------|-----------------------|-----------------|--------------------------|-----------------------|-----------------|--6--------5--------3-----|-------0------------0--|--------------0--|-----4--0-----4--0-----4--| PM- - -
--------------------------|--------------------------|--------------------------|--------------------------|--------------------------|--------------------------|--------------------------|--------------------------|--2--------6-----2--------|--6-----2--------5-----2--|-----4--0-----------4--0--|-----------4--0-----------|
-----------------------|--------------------------|-----------------------|--------------------------|-----------------------|--------------------------|-----------------------|--------------------------|--------6-----2--------|--6--------5--------3-----|--4--0-----------4--0--|-----4--0-----4--0-----4--|
--------------------------|--------------------------|--------------------------|--------------------------|--------------------------|--------------------------|--------------------------|--------------------------|--2--------6-----2--------|--6-----2--------5-----2--|-----4--0-----------4--0--|-----------4--0-----------|
-----------------------|--------------------------|--------------|-----------------------|--------------------------|--------------|-----------------------|--------------------------|--------------|-----------------------|--------------------------|--------------|--------6-----2--------|--6--------5--------3-----|--2--------6--|--4--0-----------4--0--|-----4--0-----4--0-----4--|-----4--0-----|
Tap to rate this tab
 
# A B C D E F G H I J K L M N O P Q R S T U V W X Y Z