Arnocorps - True Lies tab

Arnocorps - True Lies

skyturnedred@gmail.com

EADGBe

 
Bass intro

|-----------------------------------------------------||-----------------------------------------------------||-----------------------------------------------------||-5-55555555-88-5-55555555-88-5-55555555-88-1111-3333-|
Riff 1
Guitar 1|-------------------------------| |-------------------------------| |-------------------------------| |-------------------------------| x3 |-0-0-7-0-0-5-0-0-3-0-0-5-8-7---| |-------------------------------|
|-------------------------------| |-------------------------------| |-------------------------------| |-------------------------------| |-0-0-7-0-0-5-0-0-333333333-----| |-------------------------------|
Guitar 2 |-------------------------------------------| |-------------------------------------------| |-14----12-14----12-14----12-14---10---12---| |-------------------------------------------| |-12----10-12----10-12----10-12----8---10---| |-------------------------------------------|
Riff 2
|-----------------------------------------------------| |-----------------------------------------------------| |-2-22222222-55-2-22222222-55-2-22222222-55-----------| |-2-22222222-55-2-22222222-55-2-22222222-55-3333-5555-| |-0-00000000-33-0-00000000-33-0-00000000-33-3333-5555-| |-------------------------------------------1111-3333-|
Riff 3
|------------------------------------------------------| |------------------------------------------------------| |-2-2222-5-2-5-----------5-----2-2222-5-4-5------------| |-2-2222-5-2-5--3-3333-5-5-5---2-2222-5-4-5--3333-5555-| |-0-0000-3-2-3--3-3333-5-3-5---0-0000-3-2-3--3333-5555-| |---------------1-1111-3---3-----------------1111-3333-|
|-----------------------------------------------------| |-----------------------------------------------------| |-----------------------------------------------------| |-----------------------------------------------------| |-----------------------------------------------------| |-----------------------------------------------------|
Riff 1 Riff 2 Riff 3 Riff 4
Guitar 1|----------------------------------| |----------------------------------| |----------------------------------| |---2---2---2---2---3---3---5---5--| |---2---2---2---2---3---3---5---5--| |-000-000-000-000-111-111-333-333--| .. .. .. .. .. .. .. ..
Guitar 2|----------------------------------| |----------------------------------| |-4---------------5-------7--------| |----------------------------------| |-2---------------3-------5--------| |----------------------------------|
Riff 1 with this harmony:
|-----------------------| |-----------------------||-9---------10--12------| x2|-----------------------||-7---------8---10------| |-----------------------|
|---------------------------------| |---------------------------------||-14-14-14-14-14-14-14-14--12-12--| x3 |---------------------------------||-12-12-12-12-12-12-12-12--10-10--| |---------------------------------|
|--------------------------------------| |--------------------------------------||-10-10-10-10-10-10--12-12-12-12-12-12-| |--------------------------------------||--8--8--8--8--8--8--10-10-10-10-10-10-| |--------------------------------------|
Riff 5 (Whoa oh oh)
|--------|--------|--------|-----------| |--------|--------|--------|-----------||-2------|--------|-2------|-----------| |-2------|-3------|-2------|-3---------||-0------|-3------|-0------|-3333-5555-| |--------|-1------|--------|-1111-3333-|
Riff 3 End with power chord A ---
Tap to rate this tab
 
# A B C D E F G H I J K L M N O P Q R S T U V W X Y Z