Arsebreed – Stabbed In The Arse tab

Song : STABBED IN ARSE
Band : ARSEBREED
ALBUM : MUNCHING THE ROTTEN


::TABULATURE LEGEND::
 " - tremolo             h - hammer on
 ~ - vibrato             \ - slide down
 p - pull off            / - slide down
 tr - trill              ^ - pinch harmonics
 = - sustained note      b - bend string
 p.m. - palm muting      t - tapping

Tuning is D [D, G, C, F, A, D]

[Riff 1a (x2)]||-------------------------------------------------|-||o------------------------------------------------|-||---------------------------------------------^---|-||--10-----11-10-9----9------------------------9~~-|-||o----9-8---------11---11-10-9-8-9-8-8-11-8-9-----|-||-------------------------------------------------|- . . . . . . . . . . . . . . . . . .
-|-----------------------------------||-|----------------------------------o||-|-----------------------------------||-|-----------------------------------||-|-6666666655555555-----------------o||-|-----------------5555555566666666--|| ................................
[Riff 1b]|------------------------------------------------|-|------------------------------------------------|-|-8-------9--8-7----7------------------------^---|-|----7-6----------9----9--8-7-6-7-6-6--9-6-7-9~~-|-|------------------------------------------------|-|------------------------------------------------|-
| . . . . . . . . . . . . . . . . . . . . ||------------------------------------------------|-|------------------------------------------------|-|--------------------------------------------^---|-|-10-----11-10-9----9------------------------9~~-|-|----9-8---------11---11-10-9-8-9-8-8-11-8-9-----|-|------------------------------------------------|- . . . . . . . . . . . . . . . . . .
-|----------------------------------|-|----------------------------------|-|----------------------------------|-|----------------------------------|-|-9999999988888888-----------------|-|-----------------8888888899999999-|
................................ |-|----------------------------------|-|----------------------------------|-|----------------------------------|-|----------------------------------|-|-6666666655555555-----------------|-|-----------------5555555566666666-| ................................
[Outro]|---------------------------------------------|-|---------------------------------------------|-|---------------------------------------------|-|---------------------------------------------|-|-2--2------------------2--2------------------|-|-0--0--0h2h5p2-0h3h6p3-0--0--0h2h5p2-0h3h6p3-|-
| . . . . ||---------------------------------------------|-|---------------------------------------------|-|---------------------------------------------|-|---------------------------------------------|-|-2--2------------------2--2------------------|-|-0--0--0h2h5p2-0h3h6p3-0--0------------------|- . . . .
-|-------------------------------------------------|--|-------------------------------------------------|--|-------------------------------------------------|--|-------------------------------------------------|--|-------7h8p7-------7h8p7-------7h8p7-6h7p6-5h6p5-|--|-4h5p4-------4h5p4-------4h5p4-------------------|-
| |-|-------------------------------------------------|--|-------------------------------------------------|--|-------------------------------------------------|--|-------------------------------------------------|--|-------------------------------------------------|--|-------------------------------------------------|-
-|-------------------------------------------------|--|-------------------------------------------------|--|-------------------------------------------------|--|-------------------------------------------------|--|-------7h8p7-------7h8p7-------7h8p7-6h7p6-5h6p5-|--|-4h5p4-------4h5p4-------4h5p4-------------------|-
| |-|-------------------------------------------------|--|-------------------------------------------------|--|-------------------------------------------------|--|-------------------------------------------------|--|-------------------------------------------------|--|-------------------------------------10\---------|-
-|-------------------------------------------------|--|-------------------------------------------------|--|-------------------------------------------------|--|-------------------------------------------------|--|-------7h8p7-------7h8p7-------7h8p7-6h7p6-5h6p5-|--|-4h5p4-------4h5p4-------4h5p4-------------------|-
| |-|-------------------------------------------------|--|-------------------------------------------------|--|-------------------------------------------------|--|-7-----------------------------------------------|--|-7-----------------------------------------------|--|-5-----------------------------------------------|- .
-|-------------------------------------------------|-|-------------------------------------------------|-|-------------------------------------------------|-|-------------------------------------------------|-|-------7h8p7-------7h8p7-------7h8p7-6h7p6-5h6p5-|-|-4h5p4-------4h5p4-------4h5p4-------------------|
| |-|-------------------------------------------------|-|-------------------------------------------------|-|-------------------------------------------------|-|-------------------------------------------------|-|-------------------------------------------------|-|-------------------------------------------------|
[Riff 2 (x2)]||--------------------------------------------------|-||o-------------------------------------------------|-||--------------------------------------------------|-||--------5h6p5-------5h6p5-------5h6p5-4h5p4-3h4p3-|-||o-2h3p2-------2h3p2-------2h3p2-------------------|-||--------------------------------------------------|-
| |||--------------------------------------------------|-||o-------------------------------------------------|-||--------------------------------------------------|-||--------------------------------------------------|-||o-------7h8p7-------7h8p7-------7h8p7-6h7p6-5h6p5-|-||--4h5p4-------4h5p4-------4h5p4-------------------|-
-|--------------------------------------------------||-|-------------------------------------------------o||-|--------------------------------------------------||-|-------5h6p5-------5h6p5-------5h6p5-4h5p4-3h4p3--||-|-2h3p2-------2h3p2-------2h3p2-------------------o||-|--------------------------------------------------||
| |-|--------------------------------------------------||-|-------------------------------------------------o||-|--------------------------------------------------||-|--------------------------------------------------||-|-------7h8p7-------7h8p7-------7h8p7-6h7p6-5h6p5-o||-|-4h5p4-------4h5p4-------4h5p4--------------------||
[Riff 3]|-----------------------------|-----------------------------||-----------------------------|-----------------------------||-----------------------------|-----------------------------||-----------------------------|-------------------------6---||-9-5h6p5---6-----6-----6-7-6-|-9-5h6p5---6-----5-----5---5-||---------5---5-5---5-5-------|---------5---5-5---5-5-------| . . . . . . . . . .
[RIFF 1a (x2)] [RIFF 1b] [BASS OUTRO] [RIFF 3 (x2)]
[Outro 2]|---------------------------------------|-|---------------------------------------|-|---------------------------------------|-|-------------------------7-6-----6--5--|-|----------8-----------7------7-6-6--5--|-|-00000000-6--00000000-5----------4--3--|- ........ ........ . . . . . .
-|--------------------------------------------------|-|--------------------------------------------------|-|--------------------------------------------------|-|-----------------------------6-----4-----6--5--4--|-|-----------6-----4-----5-------5-5---5-5-6--5--4--|-|-5-5-8-5-5---5-5---5-5---5-5-------------4--3--2--| . . . . . . . . . . . . . . . . . . . . . . .
[RIFF 1a (x2)] [RIFF 1b]
[Riff 4 (x4)]||--------------------------------||||o------------------------------o||||--------------------------------||||--3-5-4-3-----------------------||||o-2-4-3-2----------------------o||||--1-3-2-1-00000--0000000000000--|| ..... .............
[Riff 5]|-------------------------------------------------|-|-------------------------------------------------|-|-------------------------------------------------|-|-5---5---5---6---6---6---5---5---5---------------|-|---0---0---0---0---0---0---0---0---0-4-0-4-0-4-0-|-|-------------------------------------------------|-
| . . . . . . . . . . . . . . . ||-------------------------------------------------|-|-------------------------------------------------|-|-------------------------------------------------|-|-------------------------------------------------|-|-7---7---7---8---8---8---7---7---7---------------|-|---5---5---5---5---5---5---5---5---5-6-5-6-5-6-5-|- . . . . . . . . . . . . . . .
-|-------------------------------------------|--|-------------------------------------------|--|-------------------------------------------|--|-5---5---5---6---6---6---------------------|--|---0---0---0---0---0---0-7--6-----5--4-----|--|-------------------------5--4--0--3--2--0--|-
| . . . . . . . . |-|-------------------------------------------|--|-------------------------------------------|--|-------------------------------------------|--|-------------------------------------------|--|-7---7---7---8---8---8---7--6-----5--4-----|--|---5---5---5---5---5---5-5--4--0--3--2--0--|- . . . . . . . .
-|----------------------------------------------|-|----------------------------------------------|-|----------------------------------------------|-|-5---5---5---6---6---6---5---5---5---5--5--5--|-|---0---0---0---0---0---0---0---0---0-7--7--7--|-|----------------------------------------------|
| . . . . . . . . . . . . . . . . . . . . . |-|----------------------------------------------|-|----------------------------------------------|-|----------------------------------------------|-|----------------------------------------------|-|-7---7---7---8---8---8---7---7---7---3--3--3--|-|---5---5---5---5---5---5---5---5---5-5--5--5--| . . . . . . . . . . . . . . . . . . . . .
[RIFF 4 (x4)] [OUTRO] [RIFF 2 (x2)] [RIFF 4 (x4)]
[Ending]|--------------*||--------------*||--------------*||-3-5-4-3------*||-2-4-3-2------*||-1-3-2-1------*|
END OF SONG
Please rate this tab:
x1.0