Arsis – We Are The Nightmare tab

  Song: We Are The Nightmare
  Band: Arsis
  Album: We Are The Nightmare

 Mostly accurate, listen to the song for timing. I haven't tabbed out the solo yet but 
coming soon, email me with any mistakes of corrections andrewbludwig(at)gmail.com.
Have fun and enjoy.

INTRO (Cleanish)|----------------------------------------------------------||------------6--------8-------------6------10--------------||-------9---------9-------------9-------9------------------||----------------------------------------------------------||--0-----------------------0-------------------------------||----------------------------------------------------------|
|----------------------------------------------------------||-----------6-------8------------6-------0----8---10-------||-------9-------9------------9-------9---------------------||----------------------------------------------------------||--0--------------------0----------------------------------||----------------------------------------------------------|
|----------------------------------------------------------||-----------6-------8------------6-------10----------------||-------9-------9------------9-------9---------------------||----------------------------------------------------------||--0--------------------0----------------------------------||----------------------------------------------------------|
|----------------------------------------------------------||-----------6------8---------------------------------------||-------9-------9------------------------------------------||----------------------------------------------------------||--0-------------------------------------------------------||----------------------------------------------------------|
(Distortion)|-----------------------------------------------------------||-----------------------------------------------------------||9-9-9-9-8-8-8-8--------------------------------------------||----------------7-7-7-7-6-6-6-6--------9-9-9-9-10-10-10-10-||-------------------------------7-7-7-7---------------------||-----------------------------------------------------------|
|
|----------------------------------------------------------||----------------------------------------------------------||----------------------------------------------------------||6-6-6-6---------------------------------------------------||----------------------------------------------------------||----------------------------------------------------------|
VERSE (Distortion)|----------------------------------------------------------||----------------------------------------------------------||--9-8---9-8---9-8----------------------9-8---9-8----------||--7-6---7-6---7-6----------------------7-6---7-6----------||------0-----0-----0-0-0-0-0-0-0-0-0-0------0-----0-7-7-7--||----------------------------------------------------------||PM . . . . . . . . . . . . . . . . .
|
|----------------------------------------------------------||----------------------------------------------------------||--8-----8---8-9\----------------------------------X2------||----------------------------------------------------------||----6-6---6-----------------------------------------------||----------------------------------------------------------|
PM . . . VERSE PT 2|----------------------------------------------------------||----------------------------------------------------------||--------8---8-9--------8-----8-9----------11----11-12-----||----------------------------------------------------------||--7-7-7---7------7-7-7---7-7-----10-10-10----10-----------||----------------------------------------------------------|
|PM. . . . . . . . . . . . .|----------------------------------------------------------||----------------------------------------------------------||----------------------------------------------------------||-----------14-------14----13\-----------------------X2----||--12-12-12----12-12----12---------------------------------||----------------------------------------------------------| PM . . . . . .
|----------------------------------------------------------||----------------------------------------------------------||--8----5--------------------------------------------------||--7----4----7-----------------------------2-4-5-4-5-7-4-5-||--6----3----6----6-6-x-2----------------------------------||------------5----5-5-x-0-----0-0-0-0-0-0------------------|
|PM . . . . . . . . . . . . . .|----------------------------------------------------------||----------------------------------------------------------||----------------------------------------------------------||---7-5-7-9-----------------------------------------X3-----||----------------------------------------------------------||----------------------------------------------------------|
PM . . . .|----------------------------------------------------------||----------------------------------------------------------||--6----5--------------------------------------------------||--7----4----7---------------------------------------------||--8----3----6---------------------------------------------||------------5---------------------------------------------|
(VERSE PT. 2 x 1)
|----------------------------------------------------------||----------------------------------------------------------||--------8---8-9-------8---8-9-------------11----11-12-----||----------------------------------------------------------||--7-7-7---7-----7-7-7---7-----10-10-10-10----10-------10--||----------------------------------------------------------|
|PM. . . . . . . . . . . . . .|----------------------------------------------------------||----------------------------------------------------------||-----------11----11-12-----------9-2----------------------||---------------------------------x-x----------------------||--10-10-10----10-------10-10-10--7-0----------------------||----------------------------------------------------------| PM. . . . . . .
|----------------------------------------------------||----------------------------------------------------||--12-12---11-----------------------------12-12---11-||--14-14---14-----------------------------14-14---14-||--14-14---14-----------------------------14-14---14-||--------0-----0-0-0-0--0-0-0-0--0-0-0-0--------0----|
| PM . . . . . . . . . . . . . .|-------------------------||-------------------------||------------8------11^br-||----------7-----10-------||--------5-----9----------||--0-0-0------------------|
|PM. . .|----------------------------------------------------------||----------------------------------------------------------||--12-12---11----------------------------------------------||--14-14---14----------------------------------------------||--14-14---14----------------------------------------------||--------0----0--0--0-0-0-0--0--0--0-0-0-0--0--0--0-0-0-0--|
|PM . . . . . . . . . . . . . . . . . . .|-------------------------------------------------||-------------------------------------------------||--12-12---11-----------9------11^br---12-12---11-||--14-14---14---------7-----10---------14-14---14-||--14-14---14-------5-----9------------14-14---14-||--------0----0-0-0------------------0-------0----|
|PM . . . . . .|----------------------------------------------------------||---------------------------------0------------------------||--------------------------------------------9------11^br--||--------5---4---2--------7----------------7-----10--------||--------7---5---3---3/5-----(5)------5--5-----9-----------||--0-0-0---0---0-------------------------------------------|
|PM. . . . . .|----------------------------------------------||--------------------------------------------0-||--12-12---11----------------------------------||--14-14---14--------5---4---2--------7--------||--14-14---14--------7---5---3---3/5-----(5)---||--------0----0-0-0----0---0-------------------|
|PM . . . . . .|-------------------------||-------------------------||---------9------11^br----||-------7-----10----------||--5--5-----9-------------||-----------------------0-| PM .
Please rate this tab:
x1.0