Arsonists Get All The Girls - Violence In Fluid Triceratops tab

[Violence In Fluid: Triceratops]
[Portals]
[Arsonists Get All The Girls]

Tuning: Drop C (CGCFAD/Drop D Down A Step)
joshuaoliveira@hotmail.com

this song = a Fucking masterpiece.

cant beleive theres like no tabs from off this album, its pure chaos!
absolute genious! msg me lol ill tab em :P

my guitar pro will really help you with this all! its so hard to put
clearly on paper lol

[Riff 1, Guitar 1 & 2] - [00:00] - [00:14-------| - [2x]- ----------------------------------------------|- ----------------------------------------------|- ----------------------------------------------|- ---------------------3---------------------3--|- ----------------------------------------------|- -333--333333--3333333--333--333333--3333333---|
PM .................... ....................AP . .- ---------------------------------------------|- ---------------------------------------------|- ---------------------------------------------|- ---------------------6---------------------6-|- ---------------------------------------------|- -333--333333--3333333--333--333333--3333333--|PM .................... ....................AP . .
- ---------------------------------------------|- ---------------------------------------------|- ---------------------------------------------|- ---------------------6---------------------6-|- ---------------------------------------------|- -666--666666--6666666--666--666666--6666666--|
PM .................... ....................AP . .-- ----------------------------------------------|- ----------------------------------------------|- ----------------------------------------------|- ---------------------10--------------------10-|- ----------------------------------------------|- -666--666666--6666666--666--666666--6666666---|PM .................... ....................AP .. ..
Triplets! they're 3 really quick notes lol all the same length :P not two 16th notes and an 8th. its a triplet :P i dno how to explain.. check my gp lol oh and play it at like mach 3 ahahaha like all arsonist ----------------------------------------------------------------------------
[Riff 2, Guitar 1 & 2] - [00:14] - [00:37---------------------------| - [4x]- ------------------------------------------------------------------|- ------------------------------------------------------------------|- ------------------------------------------------------------------|- -------------------------1----------------------------------------|- ---------1-------0-----------------------6-------------5----------|- -0-1-2-3---0-2-3---1-2-3---0-0-0-0h1-5-0---0-0-0-0-4-0---0-0-0-0--|PM ....... ..... ..... ..... . ... . . .......
- -----------------------------|--------------------------|- -----------------------------|--------------------------|- -----------------------------|--------------------------| Played 3rd and- -----------------7-7-5--/11--|---------7-7-5--/10-8-7---| 4th time by- -8-8-7-----------------------|-8-8-7--------------------| second guitar.- ---------7-7-5---------------|--------------------------|
----------------------------------------------------------------------------
[Riff 3] - [00:47] - [00:51]- --------------------------------------------------------------|- --------------------------------------------------------------|- --------------------------------------------------------------|- -8------7------5------7-----3-----8------7------5------7------|- -8------7------5------7-----3-----8------7------5------7------|- -8(16x)-7(16x)-5(16x)-7(8x)-3(8x)-8(16x)-7(16x)-5(16x)-7(13x)-|
----------------------------------------------------------------------------
[Riff 4] - [00:51] - [01:06----------| - [4x]- ------------------------------2----|- ------------------------------2----|- ---8-8---77-7br---------------2----|- ---7-7---66x6br------1-------------|- -006-6-0055x5br--11----00----------|- -005-5-0044x4br--112---001-01------|PM .. .. .. ..
check my gp :| ----------------------------------------------------------------------------
[Riff 5] - [01:06] - [01:25---------------------------------------| - [4x]- ----------------------------------------------------------------|- ----------------------------------------------------------------|- ----------6-5----------6-5--------------------------------------|- ----------5-4----------5-4--------------------------------------|- -2221-2-1-4-3-2221-2-1-4-3-868/111111111111111111111111- (<- 11-|s)- -2221-2-1-----2221-2-1-----868/111111111111111111111111---------| (not 1's)PM ........ ........ ............................
check my gp :P ----------------------------------------------------------------------------
[Riff 6] - [01:25] - [01:33]- ------------------------------------------------------------|- ------------------------------------------------------------|- ------------------------------------------------------------|- --------------------------------9-10---------------9-10-8-9-|- -1111111111111111-8866-11111111-7-8--8866-11111111-7-8--6-7-|- -1111111111111111-8866-11111111------8866-11111111----------|PM .............................. .............
- --------------------------------------------------------|- --------------------------------------------------------|- --------------------------------------------------------|- ---------------9-10---------------9-10-8-9---9-10-8-9---|- -8866-11111111-7-8--8866-11111111-7-8--6-7---7-8--6-7---|- -8866-11111111------8866-11111111-----------------------|PM ............. .............
again theyre 11's not 1's ----------------------------------------------------------------------------
[Riff 7] - [01:33] - [01:57-------------------------| - [2x]- --------------------------------------------------|- --------------------------------------------------|- -88-8-88-8-8-88-8-88-8-8-55-5-55-5-5-55-5-55-5-5--|- -66-6-66-6-6-66-6-66-6-6-33-3-33-3-3-33-3-33-3-3--|- -66-6-66-6-6-66-6-66-6-6-33-3-33-3-3-33-3-33-3-3--|- -66-6-66-6-6-66-6-66-6-6-33-3-33-3-3-33-3-33-3-3--|
- ---------------------------------------------------------|- ---------------------------------------------------------|- -88-8-8/12-12-12-88-8-8/12-12-12-55-5-55-5-5-5-3-3-3-3-3-|- -66-6-6/10-10-10-66-6-6/10-10-10-33-3-33-3-3-3-1-1-1-1-1-|- -66-6-6/10-10-10-66-6-6/10-10-10-33-3-33-3-3-3-1-1-1-1-1-|- -66-6-6/10-10-10-66-6-6/10-10-10-33-3-33-3-3-3-1-1-1-1-1-|
[Riff 8] - [01:57] - [02:20-------------------------| - [4x]- --------------------------------------------------|- --------------------------------------------------|- -88-8-88-8-8-88-8-88-8-8-55-5-55-5-5-55-5-55-5-5--|- -66-6-66-6-6-66-6-66-6-6-33-3-33-3-3-33-3-33-3-3--|- -66-6-66-6-6-66-6-66-6-6-33-3-33-3-3-33-3-33-3-3--|- -66-6-66-6-6-66-6-66-6-6-33-3-33-3-3-33-3-33-3-3--|
[Riff 9] - [01:57] - [02:20-------------------------------------------------| - [4x]- ----------------11-16-11-13-11-15-11----------------11-16-11-13-11-15-11--|- -------------13----------------------------------13-----------------------|- ----------13----------------------------------13--------------------------|- -------13----------------------------------13-----------------------------|- -11h15-------------------------------11h15--------------------------------|- --------------------------------------------------------------------------| T T T T T T
- --------------8-15p11p8h11-15/18\15p11p8h11-----------|- ------------9-------------------------------9p8/13----|- ---------10-------------------------------------------|- ------10----------------------------------------------|- -8h11-------------------------------------------------|- ------------------------------------------------------| T T
in the first part the tappings unnecessary if you can reach it lol but i think its tapped :P in the second part you pretty much have to haha im looking fr another way this might be played.. but this looks like its probably it! i wouldnt put it past arsonist lol they're amazing. [Riff 7] - [02:20] - [02:43] - [2x]
[Riff 10, Guitar 1 & 2] - [02:20] - [02:31]- --------------16----16------------------16-15-16/18-16-15-16-|- -13--------13----13--------13--------13----------------------|- -------------------------------------------------------------|- -------------------------------------------------------------|- -------------------------------------------------------------|- -------------------------------------------------------------|
-- --------------20----20------------------20-18-20/21-20-18-20-|- -16--------16----16--------16--------16----------------------|- -------------------------------------------------------------|- -------------------------------------------------------------|- -------------------------------------------------------------|- -------------------------------------------------------------|
- --------------16----16\----------------------------------------|- -13--------13----13-------/13----13-13-13-13\11-11-11-11-11-11-|- ---------------------------------------------------------------|- ---------------------------------------------------------------|- ---------------------------------------------------------------|- ---------------------------------------------------------------|
-- --------------20----20\----------------------------------------|- -16--------16----16-------/16----16-16-16-16\14-14-14-14-14-14-|- ---------------------------------------------------------------|- ---------------------------------------------------------------|- ---------------------------------------------------------------|- ---------------------------------------------------------------|
- -----------|- -----------|- -11h13~----|- -----------|- -----------|- -----------|
-- -----------|- -----------|- -14h16~----|- -----------|- -----------|- -----------|
----------------------------------------------------------------------------
[Riff 11] - [02:31] - [02:55]- -------------------------------------------------|- -------------------------------------------------|- -8~----------------8-----5~----------5-----5-5-5-|- -6~------------------6---3~----------3-----3-3-3-|- -6~--------------------6-3~----------3-----3-3-3-|- -6~----------------------3~----------3-----3-3-3-|
- -------------------------------------------------|- -------------------------------------------------|- -8~----------------8-----5~----------5-----------|- -6~------------------6---3~----------3-----------|- -6~--------------------6-3~----------3-----3-3-3-|- -6~----------------------3~----------3-----3-3-3-|PM .....
----------------------------------------------------------------------------
[Riff 12] - [02:55] - [03:06]- -----------------|- -----------------|- -----------------|- -0~--------------|- -0~--------------|- -0~--------------|
[Riff 13] - [02:59] - [03:06]- -----------------------------------------------------------------|- -----------------------------------------------------------------|- -----------------------------------------------------------------|- -------------------------------------------------------------1---|- -0-0-0-----000---0-0-0-----------0-0-0-----000---0-0-0---3-6-1---|- -0-0-0-----000---0-0-0-----------0-0-0-----000---0-0-0---3-6-1---|PM ...........................................................
----------------------------------------------------------------------------
[Riff 14, Guitar 1 & 2] - [03:06] - [03:14]- -----------------------------------------------------------------|- -----------------------------------------------------------------|- -----------------------------------------------------------------|- -------------------------------------------------------------1---|- -0-0-0-----000---0-0-0-----------0-0-0-----000---0-0-0---3-6-1---|- -0-0-0-----000---0-0-0-----------0-0-0-----000---0-0-0---3-6-1---|
PM ...........................................................-- -----------------------------------------------------------------|- -----------------------------------------------------------------|- -----------------------------------------------------------------|- -------------------------------------------------------------1---|- -0-0-0---------------------------0-0-0-----000---0-0-0---3-6-1---|- -0-0-0---------------------------0-0-0-----000---0-0-0---3-6-1---|PM ...........................................................
----------------------------------------------------------------------------
[Riff 15] - [03:14] - [03:43----------------------------------------| - [4x]- ------------------------------------------------------------------|- ------------------------------------------------------------------|- ------------------------------------------------------------------|- -------------------------------------------------------------1----|- -0-0-0-----000---0-0-0-----------0-0-0-----000---0-0-0---3-6-1----|- -0-0-0-----000---0-0-0-----------0-0-0-----000---0-0-0---3-6-1----|PM ...........................................................
Letting it ring out or not changes a couple times.. pay attention :P check my gp if you cant get it lol i cant really write note lengths in tab haha ----------------------------------------------------------------------------
[Riff 16] - [04:43] - [04:01]- -----------------------------------------------------------------|- -----------------------------------------------------------------|- -----------------------------------------------------------------|- -------------------------------------------------------------1---|- ---------------------------------------------------------3-6-1---|- -0-0-0-----000---0-0-0-----------0-0-0-----000---0-0-0---3-6-1---|PM ...
- --------------------------------------------------------------------|- --------------------------------------------------------------------|- --------------------------------------------------------------------|- -------------------------------------------------------------1---0--|- ---------------------------------0-0-0-----000---0-0-0---3-6-1---0--|- -0-0-0-----000---0-0-0-----------0-0-0-----000---0-0-0---3-6-1---0--|PM ...........................
---------------------------------------------------------------------------- [Symbols] PM... Palm Mute notes with (...) under them AP... Alternate Pick notes with (...) under them h Hammer On p Pull Off / Slide Up \ Slide Down x Dead Note (no noise) b Bend r Release Bend T Right Hand Tap ( x) Play x amount of times :)
Tap to rate this tab
 
# A B C D E F G H I J K L M N O P Q R S T U V W X Y Z