As Cities Burn – The Widow tab ver. 2

AS CITIES BURN - THE WIDOW

-----------------------------------------------------------------------------

ARTIST: As Cities Burn
TITLE:  The Widow
ALBUM:  Son, I loved You At Your Darkest
YEAR:   2005
TABS:   M.M.

Standard Tuning
Capo on 3rd fret

-----------------------------------------------------------------------------

Structure:
  Intro - Verse - Chorus I - Bridge - Verse - Chorus II - Solo - Outro


*****************************************************************************
Intro
*****************************************************************************


Guitar I (Lead)

E||---------------------------|----------------------------|B||------------------------5--|--------0-------------------|G||-------------4---0-5h-7----|-----0---------------5h--7--|D||----------5----------------|--5--------7p--5--7---------|A||------3--------------------|----------------------------|E||--5------------------------|----------------------------|
-----------------------------|------------------/5--------|-----------------|-----------------------------|--5----------------------8--|-----------------|----------------------0-5h-7-|-----5----------------------|--7-------7\-----|-------5---------------------|-----------7----------------|-----------------|----3-----5h-8p-7-5----------|----------------------------|-----------------|-5---------------------------|----------------------------|-----------------|
---------------------------|----------------------------|------------------------5--|--------0-------------------|-------------4---0-5h-7----|-----0---------------5h--7--|----------5----------------|--5--------7p--5--7---------|------3--------------------|----------------------------|--5------------------------|----------------------------|
-----------------------------|-------------------------|-------------------||-----------------------------|--5------------8---------|----8--------------||----------------------0-5h-7-|-----5-------------------|--------0----------||-------5---------------------|----------7---------6----|--------------6----||----3-----5h-8p-7-5----------|-------------------------|-------------------||-5---------------------------|-------------------------|-------------------||
Guitar II (Rhythm)
E||--0------------------|--0------------------|-----0---------------|B||--1------3-----------|--0------0-----------|-----1---------------|G||--2------------------|--0------2-----------|-----2---------------|D||--2------------------|--2------3-----------|-----2---------------|A||--0------------------|--2------3-----------|-----0---------------|E||---------------------|--0------1-----------|---------------------|
-------------------|--------------------|--0----------------|--L-----------------|--2----------------|--L-----------------|--3----------------|--L-----------------|--3----------------|--L-----------------|--1----------------|--L-----------------|
--0------------------|--0-------------------|-----0---------------|--1------3-----------|--0-------0-----------|-----1---------------|--2------------------|--0-------2-----------|-----2---------------|--2------------------|--2-------3-----------|-----2---------------|--0------------------|--2-------3-----------|-----0---------------|---------------------|--0-------1-----------|---------------------|
-------------------|-------------------||--0----------------|-------------------||--2----------------|--1----------------||--3----------------|--3----------------||--3----------------|--3----------------||--1----------------|--1----------------||
***************************************************************************** Verse ("Dead man were you ever alive ...") ***************************************************************************** Guitar II (Rhythm) strumming like |x x x x x x x |x x x x x x x x | where "x " is a 8th and "x " is a quarter one strum |
--0-----3--3--|--0-----3--3--|--0-----|--0--|--1--0--1--1--|--1--0--1--1--|--1--0--|--1--|--2--2--0--0--|--2--2--0--0--|--2--2--|--2--|--2--3--2--0--|--2--3--2--0--|--2--3--|--2--|--0--3--3--2--|--0--3--3--2--|--0--3--|--0--|-----1-----3--|-----1-----3--|-----1--|-----|
***************************************************************************** Chorus I ("My God, what a world ...") ***************************************************************************** Guitar II (Rhythm)
--3--3-----3--|--1--1--0--1--|--0--0--2--0--|--2--0--3--0--|--3--2--3--2--|-----3--1--3--|
***************************************************************************** Bridge ("And my mother's heart ...") ***************************************************************************** Guitar II (Rhythm)
--------------------------|----------------------------- | \--------1-----------8-----|--------3-----------6-----|-- |-----------0-----------0--|-----------0-----------0--|-- |-----2-----------0--------|-----3-----------6--------|-- |--0-----------7-----------|--2-----------5-----------|-- |--------------------------|--------------------------|-- |
| > 3x |
--------------------------|--------------------------|-- |--------1-----------------|--------------------------|-- |-----------0--------0-----|--------2-----------2-----|-- |-----2-----------------0--|-----------3-----------3--|-- |--0--------------2--------|-----3-----------3--------|-- |--------------0-----------|--1-----------1-------------- | /
--------------------------|--------------------------|--------1-----------1-----|-----------3-----------3--|-----3-----------3--------|--1-----------1-----------|
***************************************************************************** Verse ("Dead man is it being high ...") ***************************************************************************** Guitar II (Rhythm) one strum |
--0-----3--3--|--0--------0--|--1--0--1--1--|--1--3--6--0--|--2--2--0--0--|--2--0--0--0--|--2--3--2--0--|--2--3--6--2--|--0--3--3--2--|--0--2--5--2--|-----1-----3--|-----------0--|
***************************************************************************** Chorus II ("And I believe there is something ...") ***************************************************************************** Guitar II (Rhythm)
--0-----|--1--0--|--2--2--| x4--2--3--|--0--3--|-----1--|
***************************************************************************** Solo ***************************************************************************** Guitar II (Rhythm)
--0-----|--1--0--|--2--2--| x2--2--3--|--0--3--|-----1--|
***************************************************************************** Outro ("My God, what a world you love.") ***************************************************************************** Guitar II (Rhythm) one strum each
--3--3--|--1--1--|--0--0--|--2--0--|--3--2--|-----3--|
***************************************************************************** [Guitar I will be added soon, Guitar II is enough to play and sing the song when playing Guitar I during intro] *****************************************************************************
Please rate this tab:
x1.0