As Cities Burn – Terrible How Terrible For The Great City tab

Okay, i wont lie. I didnt write this tab, and i dont know who to give credit to because 
got it from some kid on myspace who found it from a site. Anyway, i think this is 
correct. Dont rape me if its wrong.


Gtr I (D A D G B E) - 'Cody(Clean)'
Gtr II (D A D G B E) - 'Colin(Dist.)'
Gtr III (D A D G B E) - 'Cody(Dist.)'
Gtr IV (D A D G B E) - 'Cody(Light Dist.)'
 Intro
  Q=149
  E7/B           F#madd11/C#
 4/4
  Gtr I
|-^0-------x-x-|---------------|-----------------||-^0-------x-x-|-0--0--0-0-0-0-|-0-0-0-0-0-0-0-0-||-^1-------1-x-|-2--2--2-2-2-2-|-2-2-2-2-2-2-2-2-||-^0-------0-x-|-4--4--4-4-4-4-|-4-4-4-4-4-4-4-4-||-^2-------2-2s|=4--4--4-4-4-4-|-4-4-4-4-4-4-4-4-||--------------|---------------|-----------------|
F#5/E|-----------------|---------------------||-----------------|---------------------||-----------------|---------------------||-4-4-4-4-4-4-4-4-|-4-4-4-4-4-4-4-4s====||-4-4-4-4-4-4-4-4-|-4-4-4-4-4-4-4-4s====||-2-2-2-2-2-2-2-2-|-2-2-2-2-2-2-2-2-----|
Bm/F# Bm6|-----------------|-----------------|-----------------|-------------------||-0-0-0-0-0-0-0-0-|-0-0-0-0-0-0-0-0-|-0-0-0-0-0-0-0-0-|-0-0-0-0-0-0-0-0---||-7-7-7-7-7-7-7-7-|-7-7-7-7-7-7-7-7-|-1-1-1-1-1-1-1-1-|-1-1-1-1-1-1-1-1---||-9-9-9-9-9-9-9-9-|-9-9-9-9-9-9-9-9-|-0-0-0-0-0-0-0-0-|-0-0-0-0-0-0-0-0---||-9-9-9-9-9-9-9-9-|-9-9-9-9-9-9-9-9s|=2-2-2-2-2-2-2-2-|-2-2-2-2-2-2-2-2s==||-----------------|-----------------|-----------------|-------------------|
F#madd11/C# F#5/E|-----------------|-----------------|-----------------|-------------------||-0-0-0-0-0-0-0-0-|-0-0-0-0-0-0-0-0-|-----------------|-------------------||-2-2-2-2-2-2-2-2-|-2-2-2-2-2-2-2-2-|-----------------|-------------------||-4-4-4-4-4-4-4-4-|-4-4-4-4-4-4-4-4-|-4-4-4-4-4-4-4-4-|-4-4-4-4-4-4-4-4s==||-4-4-4-4-4-4-4-4-|-4-4-4-4-4-4-4-4-|-4-4-4-4-4-4-4-4-|-4-4-4-4-4-4-4-4s==||-----------------|-----------------|-2-2-2-2-2-2-2-2-|-2-2-2-2-2-2-2-2---|
Bm/F# Bm6 Gtr I|-----------------|-----------------|----------|--------||-0-0-0-0-0-0-0-0-|-0-0-0-0-0-0-0-0-|-0--------|-(0)----||-7-7-7-7-7-7-7-7-|-7-7-7-7-7-7-7-7-|-1--------|-(1)----||-9-9-9-9-9-9-9-9-|-9-9-9-9-9-9-9-9-|-0--------|-(0)----||-9-9-9-9-9-9-9-9-|-9-9-9-9-9-9-9-9s|=2--------|-(2)----||-----------------|-----------------|----------|--------|
|
| Gtrs II, III| <|-----------------|-----------------|----------|--------||-----------------|-----------------|----------|--------||-----------------|-----------------|----------|--------||-----------------|-----------------|-0--------|-(0)----||-----------------|-----------------|-0--------|-(0)----||-----------------|-----------------|-0--------|-(0)----|
Verse N.C. Gtr II|-----------------|-----------------|-----------------|-------------------||-----------------|-----------------|-----------------|-------------------||-6-6-6-6-6-6-6-6-|-6-6-6-6-6-6-6-6-|-7-7-7-7-7-7-7-7-|-7-7-7-7-7-7-7\----||-x-x-x-x-x-x-x-x-|-x-x-x-x-x-x-x-x-|-x-x-x-x-x-x-x-x-|-x-x-x-x-x-x-6\----||-4-4-4-4-4-4-4-4-|-4-4-4-4-4-4-4-4-|-5-5-5-5-5-5-5-5-|-5-5-5-5-5-5-5\----||-----------------|-----------------|-----------------|-------------------|
|
| Gtr III|-----------------|-----------------|-----------------|-------------------||-----------------|-----------------|-----------------|-------------------||-----------------|-----------------|-----------------|-------------------||-4-4-4-4-4-4-4-4-|-4-4-4-4-4-4-4-4-|-6-6-6-6-6-6-6-6-|-6-6-6-6-6-6-6--6--||-5-5-5-5-5-5-5-5-|-5-5-5-5-5-5-5-5-|-5-5-5-5-5-5-5-5-|-5-5-5-5-5-5-5--5--||-----------------|-----------------|-----------------|-------------------|
F#5 D5 PM| PM--| PM-------| PM--| PM--------------| PM-----------------||-------------------|-------------------|-----------------|--------------------||-------------------|-------------------|-----------------|--------------------||-------------------|-------------------|-----------------|--------------------||-----2-------2-----|-------2-------2---|---------------0-|--------------------||-4-4-4-4-4-4-4--4--|--4--4-4-4-4-4-4-4-|-0-0-0-0-0-0-0-0-|-0-0-0-0-0-0-0-0----||-4-4-4-4-4-4-4--4--|--4--4-4-4-4-4-4-4-|-0-0-0-0-0-0-0-0-|-0-0-0-0-0-0-0-0----|
|
|-------------4-----|-------------------|---------4-------|---------9--------||---------------(2)-|-(2)---------------|-----------2-----|-----------7------||-------2-----------|-------------------|-----2---------2-|-----7-------7-9--||-2s4-------4-------|-------------------|-4-----4---------|-7s9---9----------||-------------------|-------------------|-----------------|------------------||-------------------|-------------------|-----------------|------------------|
F#5 E5 PM| PM--| PM----| PM--| PM---------------------------------------------||-----------------|-----------------|-----------------|--------------------------||-----------------|-----------------|-----------------|--------------------------||-----------------|-----------------|-----------------|--------------------------||-----2-------2---|-----2-------2---|-----------------|--------------------------||-4-4-4-4-4-4-4-4-|-4-4-4-4-4-4-4-4-|-2-2-2-2-2-2-2-2-|-2-2--2-2-2--2-2---2------||-4-4-4-4-4-4-4-4-|-4-4-4-4-4-4-4-4-|-2-2-2-2-2-2-2-2-|-2-2--2-2-2--2-2---2------|
|
|---------4-------|-----------------|-9-----9-----9---|-----12-----12---(12)\--||-----------2---3-|-2---------------|---9-----9-----9-|--------9---------------||-----2-----------|-----2-----------|-----7-----7-----|-7s9------9-------------||-2s4-------------|-----------------|-----------------|------------------------||-----------------|-----------------|-----------------|------------------------||-----------------|-----------------|-----------------|------------------------|
N.C. 3/4 Gtr III|-------------|-------------||-------------|-------------||-----2-------|---2-1-(1)2--||-----------2-|-4---4-------||-------2-4---|--------2h4--||-2-4---------|-------------|
Bridge F#madd11/C# 4/4 Gtr II|-----------------|-----------------||-0-0-0-0-0-0-0-0-|-0-0-0-0-0-0-0-0-||-2-2-2-2-2-2-2-2-|-2-2-2-2-2-2-2-2-||-4-4-4-4-4-4-4-4-|-4-4-4-4-4-4-4-4-||-4-4-4-4-4-4-4-4-|-4-4-4-4-4-4-4-4-||-----------------|-----------------|
|
| Gtr III|-----------------|-----------------||-----------------|---------5-------||-2-----4-----6---|---7-------7---7-||---4-----4-----4-|-----4-------0---||-----5-----5-----|-5-----5---------||-----------------|-----------------|
F#5/E|-------------------------|------------------------||-------------------------|------------------------||-------------------------|------------------------||--4--4--4--4--4--4--4--4-|--4-4--4--4--4--4--4--4-||--4--4--4--4--4--4--4--4-|--4-4--4--4--4--4--4--4-||--2--2--2--2--2--2--2--2-|--2-2--2--2--2--2--2--2-|
|
|-------------------------|----9-------14----------||-------------------12----|------10-------14----14-||-13-------14----------14-|------------------------||----12-11----12-11-------|-11------11-------11----||-------------------------|------------------------||-------------------------|------------------------|
Bm/F#|-------------------------|-------------------------||--0--0--0--0--0--0--0--0-|--0--0--0--0--0--0--0--0-||--7--7--7--7--7--7--7--7-|--7--7--7--7--7--7--7--7-||--9--9--9--9--9--9--9--9-|--9--9--9--9--9--9--9--9-||--9--9--9--9--9--9--9--9-|--9--9--9--9--9--9--9--9-||-------------------------|-------------------------|
|
|-------------------------|----14-------21----------||-14-------15-------17----|-------14-------21-------||----14-------16-------18-|-------------------18-16-||-------16-------16-------|-16-------16-------------||-------------------------|-------------------------||-------------------------|-------------------------|
Bm6 N.C.|------------------------|----------------------||--0--0--0--0--0--0--0-0-|---------5-------5----||--1--1--1--1--1--1--1-1-|-----------6S=7-------||--0--0--0--0--0--0--0-0-|-4S6--6---------------||--2--2--2--2--2--2--2-2-|----------------------||------------------------|----------------------|
|
|------------------------|--------12------12----||------------------------|-----------9-------9--||-16-16-16-16s13-13-13-x-|-7S9S11------11-------||-14-14-14-14s11-11-11-x-|----------------------||-14-14-14-14s11-11-11-x-|----------------------||------------------------|----------------------|
Breakdown N.C. 3/4 2/4 Gtrs II, III 3x||--------------|-----------|----------|-----------||||o-------------|-----------|----------|----------o||||--6---13-13\--|-6---9-9\--|-6-6-13\--|-6-6-13\---||||--x----x--x---|-x---x-x---|-x-x--x---|-x-x--x----||||o-4---11-11\--|-4---7-7\--|-4-4-11\--|-4-4-11\--o||||--------------|-----------|----------|-----------||
Bm6 3/4 4/4 PM|-------------|----------|-------------------------------||-------------|-----3-3--|---3-3-3-3-3-3-3-3-3-3-3-3-3-3-||-6---13-13\--|-6---1-1--|---1-1-1-1-1-1-1-1-1-1-1-1-1-1-||-x----x--x---|-x---0-0--|---0-0-0-0-0-0-0-0-0-0-0-0-0-0-||-4---11-11\--|-4---2-2--|-2-2-2-2-2-2-2-2-2-2-2-2-2-2-2-||-------------|----------|-2-----------------------------|
Verse N.C. Gtrs II, IV|------------------|------------|-----------------4-|-5-4-------9-7----||-----------5----0-|-(0)--------|-(0)---------5-----|-----5-7-0-----7--||--4S2---------4-6-|-(6)--------|-(6)-4S2-------4---|------------------||------4S6-(0)---7-|-(7)--------|-(7)-----4S6-------|------------------||------------------|------------|-------------------|------------------||------------------|------------|-------------------|------------------|
|--------12---------12-|---------12------12-----||--------------9-------|----9-------9--------9\-||-7S9S11----11---11----|-11---11------11----11\-||----------------------|------------------------||----------------------|------------------------||----------------------|------------------------|
|------------------|------------------|-----------------4-|-5-4-------9-7----||-----------5----0-|-(0)---(0)-(0)----|-(0)---------5-----|-----5-7-0-----7--||--4S2---------4-6-|-(6)---(6)-(6)----|-(6)-4S2-------4---|------------------||------4S6-(0)---7-|-(7)----6--(6)----|-(6)-----4S6-------|------------------||------------------|------------------|-------------------|------------------||------------------|------------------|-------------------|------------------|
|--------12---------12-|---------------------||--------------9-------|----9----9-(9)---9\--||-7S9S11----11---11----|-11---11--------11\--||----------------------|---------------------||----------------------|---------------------||----------------------|---------------------|
|------------------|------------|-----------------4-|-5-4-------9-7----||-----------5----0-|-(0)--------|-(0)---------5-----|-----5-7-0-----7--||--4S2---------4-6-|-(6)--------|-(6)-4S2-------4---|------------------||------4S6-(0)---7-|-(7)--------|-(7)-----4S6-------|------------------||------------------|------------|-------------------|------------------||------------------|------------|-------------------|------------------|
|-------12----12----10p|=9-------------------||---7s9----------------|---9----10p9-----9\--||-7--------11----11----|-----11------11-11\--||----------------------|---------------------||----------------------|---------------------||----------------------|---------------------|
|------------------|------------------|-----------------4-|-5-4-------9-7----||-----------5----0-|-(0)---(0)-(0)----|-(0)---------5-----|-----5-7-0-----7--||--4S2---------4-6-|-(6)---(6)-(6)----|-(6)-4S2-------4---|------------------||------4S6-(0)---7-|-(7)----6--(6)----|-(6)-----4S6-------|------------------||------------------|------------------|-------------------|------------------||------------------|------------------|-------------------|------------------|
|--------12----12----12-|-(12)----||-----------------------|---------||-7S9S11----11----11----|---------||-----------------------|---------||-----------------------|---------||-----------------------|---------|
Bridge/Build Up Dmaj7 Gtr II|----------------------------|-------------||----------------------------|-------------||--6-------------------------|-(6)---------||--4-------------------------|-(4)---------||--5-------------------------|-(5)---------||--0-------------------------|-(0)---------|
|
| Gtr III|-14p12----------------------|-------------||-------15p14-------------14-|-------------||-------------13S14----------|-14p13-------||-------------------14h16----|-------------||----------------------------|-------------||----------------------------|-------------|
Db5|----------------------------|--------------------------||----------------------------|--------------------------||--7-------------------------|-(7)----------------------||--6-------------------------|-(6)----------------------||--5-------------------------|-(5)----------------------||----------------------------|--------------------------|
|
|-14p12----------------------|--------------------------||-------15p14-------------14-|----------------14--------||-------------13S14----------|-14p13h14----------14p13--||-------------------14h16----|----------14h16-----------||----------------------------|--------------------------||----------------------------|--------------------------|
D5|----------------------------|-----------------||----------------------------|-----------------||----------------------------|-----------------||-/7-------------------------|-(7)-------------||--0-------------------------|-(0)-------------||--0-------------------------|-(0)-------------|
|
|-14p12----------------------|-----------------||-------15p14-------------14-|-----------------||-------------13S14----------|-14p13-----------||-------------------14h16----|---------14------||----------------------------|------------14---||----------------------------|-----------------|
B5/E|----------------------------|---------------------------||----------------------------|---------------------------||----------------------------|---------------------------||--4-------------------------|----(4)--------------------||--2-------------------------|----(2)--------------------||--2-------------------------|----(2)--------------------|
|
|-14-12----------------------|---------------------------||-------15-14-------------14-|-14s17-----------14--------||-------------13-14----------|--------14p13h14----14p13--||-------------------14-16----|---------------------------||----------------------------|---------------------------||----------------------------|---------------------------|
Dmaj7|------------------------------|---------------------------||------------------------------|---------------------------||--6-----6----6--6--6--6--6--6-|-----6--6--6--6--6--6--6-6-||--4-----4----4--4--4--4--4--4-|-----4--4--4--4--4--4--4-4-||--5-----5----5--5--5--5--5--5-|-----5--5--5--5--5--5--5-5-||--0-----0----0--0--0--0--0--0-|-----0--0--0--0--0--0--0-0-|
|
| ~~|-14-12------------------------|---------------------------||-------15-14---------------14-|-14s17----------14---------||---------------13-14----------|-------14p13h14----14p13---||---------------------14-16----|---------------------------||------------------------------|---------------------------||------------------------------|---------------------------|
Db5|------------------------------|-------------------------------||------------------------------|-------------------------------||--7-----7----7--7--7--7--7--7-|-----7--7--7--7-----7--7-7--7--||--6-----6----6--6--6--6--6--6-|-----6--6--6--6-----6--6-6--6--||--5-----5----5--5--5--5--5--5-|-----5--5--5--5-----5--5-5--5--||------------------------------|-------------------------------|
|
|-14-12------------------------|-------------------------------||-------15-14---------------14-|-14s17----------14s19----------||---------------13-14----------|-------14p13h14-------18-------||---------------------14-16----|---------------------------18--||------------------------------|-------------------------------||------------------------------|-------------------------------|
D5|------------------------------|---------------------------||------------------------------|---------------------------||------------------------------|---------------------------||--7-----7----7--7--7--7--7--7-|-----7--7--7--7--7--7--7-7-||--0-----0----0--0--0--0--0--0-|-----0--0--0--0--0--0--0-0-||--0-----0----0--0--0--0--0--0-|-----0--0--0--0--0--0--0-0-|
|
| ~~|-14-12------------------------|---------------------------||-------15-14---------------14-|-14s17----------14---------||---------------13-14----------|-------14p13h14----14p13---||---------------------14-16----|---------------------------||------------------------------|---------------------------||------------------------------|---------------------------|
F#5/D|------------------------------|-------------------------||------------------------------|-------------------------||--6-----6----6--6--6--6--6--6-|--6--6--6--6--6--6--6--6-||--4-----4----4--4--4--4--4--4-|--4--4--4--4--4--4--4--4-||--5-----5----5--5--5--5--5--5-|--5--5--5--5--5--5--5--5-||------------------------------|-------------------------|
|
|-14p12------------------------|-------------------------||-------15p14---------------14-|----------------14-------||---------------13S14----------|-14p13h14----------14p13-||---------------------14h16----|----------14h16----------||------------------------------|-------------------------||------------------------------|-------------------------|
Outro F#5/D Db5 Gtr II|-----------------|-----------------|-----------------|------------------||-----------------|-----------------|-----------------|------------------||-6-6-6-6-6-6-6-6-|-6-6-6-6-6-6-6-6-|-7-7-7-7-7-7-7-7-|-7-7-7-7-7-7-7-7--||-4-4-4-4-4-4-4-4-|-4-4-4-4-4-4-4-4-|-6-6-6-6-6-6-6-6-|-6-6-6-6-6-6-6-6--||-5-5-5-5-5-5-5-5-|-5-5-5-5-5-5-5-5-|-5-5-5-5-5-5-5-5-|-5-5-5-5-5-5-5-5--||-----------------|-----------------|-----------------|------------------|
F#5/D Db5 Gtrs II, III||------------------|-----------------|-----------------|------------------||||o-----------------|-----------------|-----------------|-----------------o||||--6-6-6-6-6-6-6-6-|-6-6-6-6-6-6-6-6-|-7-7-7-7-7-7-7-7-|-7-7-7-7-7-7-7-7--||||--4-4-4-4-4-4-4-4-|-4-4-4-4-4-4-4-4-|-6-6-6-6-6-6-6-6-|-6-6-6-6-6-6-6-6--||||o-5-5-5-5-5-5-5-5-|-5-5-5-5-5-5-5-5-|-5-5-5-5-5-5-5-5-|-5-5-5-5-5-5-5-5-o||||------------------|-----------------|-----------------|------------------||
N.C. Gtr II|---------------------|-------------------------||---------------------|-------------------------||--6-6-6--9-9-9-11-11-|-11-13-13-13-14-14-14-14-||--x-x-x--x-x-x--x--x-|--x--x--x--x--x--x--x--x-||--4-4-4--7-7-7--9--9-|--9-11-11-11-12-12-12-12-||---------------------|-------------------------|
|
| Gtr III|---------------------|-------------------------||----------------9-10-|--9----------------------||-----------9---------|-----9-11----------------||-11-0--------9-------|-----------9-11--0-11--0-||------9-11-----------|-------------------------||---------------------|-------------------------|
|-----------------------|--------------------------||-----------------------|--------------------------||--9-9-9-11-11-11-13-13-|-13-14-14-14-16-16-16-16--||--x-x-x--x--x--x--x--x-|--x--x--x--x--x--x--x--x--||--7-7-7--9--9--9-11-11-|-11-12-12-12-14-14-14-14--||-----------------------|--------------------------|
|
|-----------------------|--------------------------||------------------9-10-|--9-----------------------||------------9----------|-----9-11-----------------||-11-0----------9-------|-----------9-11--0-11--0--||------9-11-------------|--------------------------||-----------------------|--------------------------|
|-------------------------|-----------------------------||-------------------------|-----------------------------||-11-11-11-13-13-13-14-14-|-14-16-16-16-18---18b19r(18)-||--x--x--x--x--x--x--x--x-|--x--x--x--x--x----xb19r=(x)-||--9--9--9-11-11-11-12-12-|-12-14-14-14-16---16b17r(16)-||-------------------------|-----------------------------|
|
|-------------------------|-----------------------------||--------------------9-10-|--9--------------------------||--------------9----------|-----9-11--------------------||-11--0-----------9-------|-----------9-11-0-11------0--||--------9-11-------------|-----------------------------||-------------------------|-----------------------------|
~~~~~~~~~~~~~~~~~~~~~~~~~~~~~~~~~~~~~|---------------------|--------------------------*||---------------------|--------------------------*||-18-----18-----18----|-(18)-18------18---18\----*||--x------x------x----|--(x)--x-------x----x\----*||-16-----16-----16----|-(16)-16------16---16\----*||---------------------|--------------------------*|
|
|---------------------|--------------------------*||----------------9-10-|---9----------------------*||-----------9---------|-------9-11---------------*||-11-0--------9-------|------------9-11-0-11--0--*||------9-11-----------|--------------------------*||---------------------|--------------------------*|
Please rate this tab:
x1.0