As I Lay Dying - Nothing Left tab

Intro riff|-----------------|-----------------|-----------------|-----------------||-----------------|-----------------|-----------------|-----------------||-----------------|-----------------|-----------------|-----------------||---0---0---0---0-|-8-0---0---0---0-|-7-0---0---0---0-|-----------------| |-----------------|-----------------|-----------------|-------5---------||-----------------|-----------------|-----------------|-0-3-7---8-5-1-3-|
|-----------------|------------------|-----------------|-----------------||-----------------|------------------|-----------------|-----------------||-----------------|------------------|-----------------|-----------------||-7-0---0---0---0-|-10-0---0---0---0-|-8-0---0---0---0-|-----------------||-----------------|------------------|-----------------|-------5---------||-----------------|------------------|-----------------|-0-3-7---8-5-1-3-|
verses|--------------------|--------------------||--------------------|--------------------||--------------------|--------------------||--------------------|--------------------||--------------------|--------------------||-0-0-0-0-0----0---0-|-0-0-0-0-0----0---0-|
|--------------------|----------------------------------||--------------------|----------------------------------||--------------------|----------------------------------||--------------------|----------------------------------||--------------------|----------------------------------||-0-0-0-0-0----0---0-|-7-0-0-0-5-0-0-0-7-0-0-0-3-0-0-0--|
|--------------------------------------|-------------------------------------||o-------------------------------------|-------------------------------------||--------------------------------------|-------------------------------------||--12-0-0-0-12-0-0-0-12-0-0-0-12-0-0-0-|-12-0-0-0-12-0-0-0-12-0-0-0-12-0-0-0-||o-------------------------------------|-------------------------------------||--------------------------------------|-------------------------------------|
|-------------------------------------|----------------------------------------||-------------------------------------|---------------------------------------o||-------------------------------------|----------------------------------------||-------------------------------------|----------------------------------------||-------------------------------------|---------------------------------------o||--0-0-0-0--0------------0--------0---|--7-0-0-0--5-0-0-0-7-0-0-0-3-0-0--0-----|
|-------------------------------------|----------------------------------------||-------------------------------------|----------------------------------------||-------------------------------------|---------------------------------------o||-------------------------------------|----------------------------------------||-12-0-0-0-12-0-0-0-12-0-0-0-12-0-0-0-|-10-0-0-0-10-0-0-0-8-0-0-0-0-7-8-10-----||-------------------------------------|---------------------------------------o|
Back to intro riff
Breakdown |------------------------|-----------------------11-||------------------------|-10----------(10)---------||-/7----------(7)-7-10-7-|------------------7-10----||------------------------|--------------------------||------------------------|--------------------------||------------------------|--------------------------|
|-10------------------|-(10)---10-8------8---------------------||---------------------|-------------11-------10----------------||---------------------|----------------------------------------||---------------------|----------------------------------------||---------------------|----------------------------------------||---------------------|----------------------------------------|
|------------------------|-----------------------10-||------------------------|-10----------(10)---------||-/7----------(7)-7-10-7-|------------------7-10----||------------------------|--------------------------||------------------------|--------------------------||------------------------|--------------------------|
|-10b11===========(10)r--8-----8-|-10------------||--------------------------10----|---------------||--------------------------------|---------------||--------------------------------|---------------||--------------------------------|---------------||--------------------------------|---------------|
Back to verses then to chorus Rhythm (play though whole chorus)|-----------------------------|-----------------------------||-----------------------------|-----------------------------||-----------------------------|-----------------------------||-----------------------------|-----------------------------||-----------------------------|-----------------------------||--0-0--0-0--0--0-------------|--------0-0--0-0--0--0-------|
lead|-----------------------------|-----------------------------||-10---10---10-10-10-10-10-10-|-10-10-10---10---10-10-10-10-||--7----7----7--7--7--7--7--7-|--7--7--7----7----7--7--7--7-||--0----0----0--0--0--0--0--0-|--0--0--0----0----0--0--0--0-||-----------------------------|-----------------------------||-----------------------------|-----------------------------|
|-------------------------|-------------------------||-11-11-11-11-11-11-11-11-|-11-11-11-11-11-11-11-11-||--8--8--8--8--8--8--8--8-|--8--8--8--8--8--8--8--8-||--0--0--0--0--0--0--0--0-|--0--0--0--0--0--0--0--0-||-------------------------|-------------------------||-------------------------|-------------------------|
|-------------------------|--------------------------||-11-11-11-11-11-11-11-11-|-13-13-13-13-13-13-13--13-||--8--8--8--8--8--8--8--8-|-10-10-10-10-10-10-10--10-||--0--0--0--0--0--0--0--0-|--0--0--0--0--0--0--0---0-||-------------------------|--------------------------||-------------------------|--------------------------|Repeat through chorus
Before solo|-------------------------|------------------------------------||-------------------------|------------------------------------||-------------------------|------------------------------------||-------------------------|------------------------------------||-------------------------|------------------------------------||-0-0-0-0-0-0-0-0-0-0-0-0-|-7-0-0-0-8-0-0-0-7-0-0-0-8-0-0-0----|
Solo (rhythm plays intro during solo)
|----------------------|-----------------------------||----------------------|-----------------------------||-17b19================|=17r-19-17----17-------------||----------------------|-----------19----17-17b19====||----------------------|-----------------------------||----------------------|-----------------------------|
|--------------------|-------------------------||--------------------|-------------------------||--------------------|----------------------15-||-(17)---------------|-------------17----------||--------------------|-17-18-17-15----15-15----||--------------------|-------------------------|
|----------------15-17-|-17-18-17----17-18-17----17-||----------------------|----------15----------15----||-(15)-----------------|----------------------------||----------------------|----------------------------||----------------------|----------------------------||----------------------|----------------------------|
|-(17)-17----------------------|-------------------------||---------15-16-15----15-------|-------------------------||------------------17----------|-------------------------||---------------------------17-|----17-------------------||------------------------18----|-18----18-17------[17]---||------------------------------|-------------------------|
|----------------------------|-------17-18-18-17-15----15-||----------------------------|----------------------18----||-14-15-14----14-15-14-15-17-|-15-14----------------------||----------17----------------|----------------------------||----------------------------|----------------------------||----------------------------|----------------------------|
|----------------------------|-------------------------||-18-16-15-16----15-16-15----|-------------------------||-------------17----------17-|-15-14-12-15-(15)--------||----------------------------|-------------------------||----------------------------|-------------------------||----------------------------|-------------------------|
|-------------------------------------------------||-------------------------------------------------||-12----------------------14----------------15----||----12-12-12-12-12-12-12----12-12-12-12-12----12-||-------------------------------------------------||-------------------------------------------------|
|---------------------------------------------------||-------13----------13----16-15-13----15-13---------||----------------------------------15-------15-14---||-12-12----12-12-12----12---------------------------||---------------------------------------------------||---------------------------------------------------|
|-------------------------------------------------||-------------------------------------------------||-12----------------------14----------------15----||----12-12-12-12-12-12-12----12-12-12-12-12----12-||-------------------------------------------------||-------------------------------------------------|
|---------------------------------------------------||----------13----16-15-13----15-13-------13---------||-------------------------15-------15-14----15-14---||-12-12-12----12------------------------------------||---------------------------------------------------||---------------------------------------------------|
|-20b22===========================|=(20)--------------------------||---------------------------------|-------------------------------||---------------------------------|-------------------------------||---------------------------------|-------------------------------||---------------------------------|-------------------------------||---------------------------------|-------------------------------|
Repeat chorus
|------||------||------||-0----||-0----||-0----|
end
Tap to rate this tab
 
# A B C D E F G H I J K L M N O P Q R S T U V W X Y Z