As I Lay Dying - Comfort Betrays tab

Comfort Betrays


()Legend()

p = Pulloff
\ = Slide down
/ = Slide up
~ = Vibrato
* = Palm mute
b = Bend
r = Release
< = Pick slide

All guitars - Drop C# tuning



Guitar 1 - 0:00 (comes in with some feedback notes)

Guitar 2 - 0:05|-------------------------------------------||-------------------------------------------||-------------------------------------------||-----------------------------------8-5-8-7-||------9p6p0-8p5p0------9p6p0-8p5p0-6-3-6-5-||-0000-------------0000---------------------|
**** ****|-----------------------------------||-----------------------------------||-----------------------------------||-----------------------------------||------9p6p0-8p5p0------9p6p0-8p5p0-||-0000-------------0000-------------| **** ****
Both Guitars - 0:10|--------||--------||--------||-11-8-5-||--9-6-3-||--------|
Both Guitars - 0:11|-------------------------------------------||-------------------------------------------||-------------------------------------------||-----------------------------------8-5-8-7-||------9p6p0-8p5p0------9p6p0-8p5p0-6-3-6-5-||-0000-------------0000---------------------|
**** ****|--------------------------------------------||--------------------------------------------||--------------------------------------------||-----------------------------------11-8-5-7-||------9p6p0-8p5p0------9p6p0-8p5p0--9-6-3-5-||-0000-------------0000----------------------|
**** ****|-------------------------------------------||-------------------------------------------||-------------------------------------------||-----------------------------------8-5-8-7-||------9p6p0-8p5p0------9p6p0-8p5p0-6-3-6-5-||-0000-------------0000---------------------|
**** ****|--------------------------------------------||--------------------------------------------||--------------------------------------------||-----------------------------------11-8-5-7-||------9p6p0-8p5p0------9p6p0-8p5p0--9-6-3-5-||-0000-------------0000----------------------| **** ****
Both Guitars - 0:23|--------------------------------------||--------------------------------------||--------------------------------------||------------------------------8-5-8-7-||----------9-6-0-----8-5-0-----6-3-6-5-||-00000000-------000-------000---------|
******** *** ***|---------------------------------------||---------------------------------------||---------------------------------------||------------------------------11-8-5-7-||----------9-6-0-----8-5-0------9-6-3-5-||-00000000-------000-------000----------|
******** *** ***|--------------------------------------||--------------------------------------||--------------------------------------||------------------------------8-5-8-7-||----------9-6-0-----8-5-0-----6-3-6-5-||-00000000-------000-------000---------|
******** *** ***|---------------------------------------||---------------------------------------||---------------------------------------||------------------------------11-8-5-7-||----------9-6-0-----8-5-0------9-6-3-5-||-00000000-------000-------000----------| ******** *** ***
Both Guitars - 0:33|-------------------------------------------||-------------------------------------------||-------------------------------------------||-----------------------------------8-5-8-7-||------9p6p0-8p5p0------9p6p0-8p5p0-6-3-6-5-||-0000-------------0000---------------------|
**** ****|--------------------------------------------||--------------------------------------------||--------------------------------------------||-----------------------------------11-8-5-7-||------9p6p0-8p5p0------9p6p0-8p5p0--9-6-3-5-||-0000-------------0000----------------------|
**** ****|-------------------------------------------||-------------------------------------------||-------------------------------------------||-----------------------------------8-5-8-7-||------9p6p0-8p5p0------9p6p0-8p5p0-6-3-6-5-||-0000-------------0000---------------------|
**** ****|--------------------------------------------||--------------------------------------------||--------------------------------------------||-----------------------------------11-8-5-7-||------9p6p0-8p5p0------9p6p0-8p5p0--9-6-3-5-||-0000-------------0000----------------------| **** ****
Guitar 1 - 0:44|---------------------------------||---------------------------------||---------------------------------||---------------------------------||---------------------------------||-000-0-000-000-000-0-000-000-000-|
*** * *** *** *** * *** *** ***|----------------------------------||----------------------------------||----------------------------------||----------------------------------||----------------------------------||-000-0-000-000-000-0-000-000-0000-|
*** * *** *** *** * *** *** ****|----------------------------------||----------------------------------||----------------------------------||----------------------------------||----------------------------------||-000-0-000-000-000-0-000-000-0000-|
*** * *** *** *** * *** *** ****|----------------------------------||----------------------------------||----------------------------------||----------------------------------||----------------------------------||-000-0-000-000-000-0-000-000-0000-| *** * *** *** *** * *** *** ****
Guitar 2 - 0:44|---------------------------------||---------------------------------||---------------------------------||-0~------------------------------||-0~------------------------------||-0~--------------------------000-|
***|----------------------------------||----------------------------------||----------------------------------||----------------------------------||----------------------------------||-000-------------------------0000-|
*** ****|----------------------------------||----------------------------------||----------------------------------||-0~-------------------------------||-0~-------------------------------||-0~-------------------------------|
|----------------------------------||----------------------------------||----------------------------------||----------------------------------||----------------------------------||-000-0-000-000-000-0-000-000-0000-| *** * *** *** *** * *** *** ****
Both Guitars - 0:55|----------------------------------||----------------------------------||----------------------------------||----------------------------------||----------------------------------||-000-0-000-000-000-0-000-000-0000-|
*** * *** *** *** * *** *** ****|----------------------------------||----------------------------------||----------------------------------||----------------------------------||----------------------------------||-000-0-000-000-000-0-000-000-0000-|
*** * *** *** *** * *** *** ****|----------------------------------||----------------------------------||----------------------------------||----------------------------------||----------------------------------||-000-0-000-000-000-0-000-000-0000-|
*** * *** *** *** * *** *** ****|----------------------------------||----------------------------------||----------------------------------||----------------------------------||----------------------------------||-000-0-000-000-000-0-000-000-0000-| *** * *** *** *** * *** *** ****
Guitar 1 - 1:06|----------------------------------||----------------------------------||----------------------------------||----------------------------------||----------------------------------||-000-0-000-000-000-0-000-000-0000-|
*** * *** *** *** * *** *** ****|----------------------------------||----------------------------------||----------------------------------||----------------------------------||----------------------------------||-000-0-000-000-000-0-000-000-0000-|
*** * *** *** *** * *** *** ****|----------------------------------||----------------------------------||----------------------------------||----------------------------------||----------------------------------||-000-0-000-000-000-0-000-000-0000-|
*** * *** *** *** * *** *** ****|----------------------------------||----------------------------------||----------------------------------||----------------------------------||----------------------------------||-000-0-000-000-000-0-000-000-0000-| *** * *** *** *** * *** *** ****
Guitar 2 - 1:06
|-------------------------------12~-------------||-----6~------------------------11~-------------||--9~----9~-7~-----10~-9~-9~~~~--9~-------------||--------------12~------------------------------||-----------------------------------------------||-----------------------------------------------|
Guitar 1 - 1:17|-------------------------------------------------------------||-------------------------------------------------------------||-------------------------------------------------------------||----------------------------------------------------44-------||------9-6-5-----6-3-5-----3-5------9-6-5----55335566--663355-||-000--------000-------000-----000--------000-----------------|
*** *** *** *** *******************|--------------------------------------------------------------||--------------------------------------------------------------||--------------------------------------------------------------||-----------------------------------------------------44-------||------9-6-5-----6-3-5-----3-5------9-6-5----55-3-5-6----6-5-3-||-000--------000-------000-----000--------000------------------| *** *** *** *** ***** * * * ** * * *
Guitar 2 - 1:17|-------------------------------------------------------------||-------------------------------------------------------------||-------------------------------------------------------------||-------------------------------------------------------------||-------------------------------------------------------------||-------------------------------------------------------------|
|-------------------------------------------------------------||-------------------------------------------------------------||-------------------------------------------------------------||-0~----------------------------------------------------------||-0~----------------------------------------------------------||-0~--------------------------------------<<<<<<<<<<<<<<<<<<<-|
Guitar 1 - 1:28|-----------------------------------------------------------------||-----------------------------------------------------------------||-----------------------------------------------------------------||--------------------------------------------------------44-------||-----9-6-5-------6-3-5-------3-5-----9-6-5------55335566--663355-||-0-0-------0-0-0-------0-0-0-----0-0-------0-0-0-----------------|
* * * * * * * * * * * * *****************|------------------------------------------------------------------||------------------------------------------------------------------||------------------------------------------------------------------||---------------------------------------------------------44-------||-----9-6-5-------6-3-5-------3-5-----9-6-5------55-3-5-6----6-5-3-||-0-0-------0-0-0-------0-0-0-----0-0-------0-0-0------------------| * * * * * * * * * * * * *** * * * ** * * *
Guitar 2 - 1:28|-------------------------------------------------------------------||-------------------------------------------------------------------||-------------------------------------------------------------------||-----11-8-7-------8-5-7-------5-7-----11-8-7--------------44-------||--------------------------------------------------55335566--663355-||-0-0--------0-0-0-------0-0-0-----0-0--------0-0-0-----------------|
* * * * * * * * * * * * *****************|-------------------------------------------------------------------||-------------------------------------------------------------------||----------------------------------------------------------55-------||-----11-8-7-------8-5-7-------5-7-----11-8-7-----88-5-7-8----8-7-5-||-------------------------------------------------------------------||-0-0--------0-0-0-------0-0-0-----0-0-------0-0-0------------------| * * * * * * * * * * * * *** * * * ** * * *
Guitar 1 - 1:39|--------------------------||--------------------------||--------------------------||------------------8-5-8-7-||------------------6-3-6-5-||-0000000000000000---------|
****************|---------------------------||---------------------------||---------------------------||------------------11-8-5-7-||-------------------9-6-3-5-||-0000000000000000----------|
****************|--------------------------||--------------------------||--------------------------||------------------8-5-8-7-||------------------6-3-6-5-||-0000000000000000---------|
****************|---------------------------||---------------------------||---------------------------||------------------11-8-5-7-||-------------------9-6-3-5-||-0000000000000000----------|
****************|--------------------------------------||--------------------------------------||--------------------------------------||------------------------------8-5-8-7-||----------9-6-0-----8-5-0-----6-3-6-5-||-00000000-------000-------000---------|
******** *** ***|---------------------------------------||---------------------------------------||---------------------------------------||------------------------------11-8-5-7-||----------9-6-0-----8-5-0------9-6-3-5-||-00000000-------000-------000----------|
******** *** ***|--------------------------------------||--------------------------------------||--------------------------------------||------------------------------8-5-8-7-||----------9-6-0-----8-5-0-----6-3-6-5-||-00000000-------000-------000---------|
******** *** ***|---------------------------------------||---------------------------------------||---------------------------------------||------------------------------11-8-5-7-||----------9-6-0-----8-5-0------9-6-3-5-||-00000000-------000-------000----------| ******** *** ***
Guitar 2 - 1:39 plays solo
Both Guitars - 2:01|-----------------------------------||-----------------------------------||-----------------------------------||----------11\8-----8\7-----8\5/8\7-||-----------9\6-----6\5-----6\3/6\5-||-00000000------000-----000---------|
******** *** ***|-----------------------------------||-----------------------------------||-----------------------------------||----------11\8-----8\7-----8\5/8\7-||-----------9\6-----6\5-----6\3/6\5-||-00000000------000-----000---------|
******** *** ***|-----------------------------------||-----------------------------------||-----------------------------------||----------11\8-----8\7-----8\5/8\7-||-----------9\6-----6\5-----6\3/6\5-||-00000000------000-----000---------|
******** *** ***|-----------------------------------||-----------------------------------||-----------------------------------||----------11\8-----8\7-----8\5/8\7-||-----------9\6-----6\5-----6\3/6\5-||-00000000------000-----000---------| ******** *** ***
Guitar 1 - 2:12|-----------------------------------------||-----------------------------------------||-----------------------------------------||-0~--------------------------------------||-0~--------------------------------------||-0~--------------------------------------|
|-----------------------------------------||-----------------------------------------||-----------------------------------------||-0~--------------------------------------||-0~--------------------------------------||-0~--------------------------------------|
Guitar 2 - 2:12|------------------------------------------------------------||------------------------------------------------------------||-7-7-7-7-7-7-7-7-8-8~-8~-8~-7-7-7-7-7-7-7-7-7-7-7-7-7-7-7-7-||------------------------------------------------------------||------------------------------------------------------------||------------------------------------------------------------|
|------------------------------------------------------------||----------------------------/10-10-10-10-10b-10b-10b-10b-10-||-7-7-7-7-7-7-7-7-8-8~-8~-8~---------------------------------||------------------------------------------------------------||------------------------------------------------------------||------------------------------------------------------------|
Guitar 1 - 2:23|---------------------------------------------------------------------------||---------------------------------------------------------------------------||---------------------------------------------------------------------------||---------------------------------------------------------------------------||---------------------------------------------------------------------------||-000~-000~-000000-000~------000000-000~-000-000-000000-000~---------000000-| *** *** ****** *** ****** *** *** *** ****** *** ******
Guitar 2 - 2:23|---------------------------------------------------------------------------||---------------------------------------------------------------------------||---------------------------------------------------------------------------||---------------------------------------------------------------------------||---------------------------------------------------------------------------||-000~------000000-000~-000~-000000-000~---------000000-000~-000-000-000000-| *** ****** *** *** ****** *** ****** *** *** *** ******
Both Guitars - 2:34|------------------------------------||------------------------------------||------------------------------------||------------------------------------||------------------------------------||-000-0-000-000-000-0-000-000-000000-|
*** * *** *** *** * *** *** ******|--------------------------------||--------------------------------||--------------------------------||--------------------------------||--------------------------------||-0-000-000-000-0-000-000-000000-|
* *** *** *** * *** *** ******|--------------------------------||--------------------------------||--------------------------------||--------------------------------||--------------------------------||-0-000-000-000-0-000-000-000000-|
* *** *** *** * *** *** ******|-------------------------||-------------------------||-------------------------||-------------------------||-------------------------||-0-000-000-000-0-000-000-| * *** *** *** * *** ***
Tap to rate this tab
 
# A B C D E F G H I J K L M N O P Q R S T U V W X Y Z