As I Lay Dying – Song 10 tab

AS I LAY DYING
SONG 10

tuning (low to high: cgcfad)

introgtr1(clean)|-----------------|-9--9--9---------|-9--9--9--------- I just gave the chords you can figure out|-0--X--X--------- the strumming.|----9--7---------|-----------------
This next part I think is with both guitars but I will tab it for just one because I can't stand not being able to play one part and it not sound right without the other.
|-4--4--4---------|-5--5--5---------|-X--X--4---------|-2--2--2--2~-----|-0--X--2--0~-----|-0--4--2--0~-----
|------------------------------------------------|----5---5--------------5---5-----0h5------------|------4-------4-4~-------4-----------4~---------|------------------------------------------------|------------------------------------------------|-4---------4--------0---------0-----------------
|------------------------------------------------|----5---5-----------------5----------5----------|------4-------4-4~------4---4------4---4--------|----------------------2----------2--------------|------------------------------------------------|-4---------4--------0----------0----------------
Part before distorted part
|------------------------------------------------|-------9-------10-9---10-9----------------------|-----9---9----------8------8--------------------|---9--------------------------------------------|-7----------0-----------------------------------|------------0-----------------------------------
Gtrs1&2|------------------------------------------------|------------------------------------------------|-------------------------------------7-7-7-7---- Guitar 2 plays the octaves |---6-7-6-7----------6-7-6-7----------X-X-X-X---- Guitar 1 plays the 0's.|---4-4-4-4--0-0--0--4-4-4-4--0-0--0--5-5-5-5----|---4-4-4-4--0-0--0--4-4-4-4--0-0--0-------------P.M - - - -
Gtr1|------------------------------------------------|------------------------------------------------|------------------------------------------------|------------------------------------------------|-0-0-0-0-0-0-0-0-0-0-0-0-0-0-0-0-0-0------------|-0-0-0-0-0-0-0-0-0-0-0-0-0-0-0-0-0-0------------
Gtr2|------------------------------------------------|------------------------------------------------|-19-19-19-19-19-19-19-19-19-19-19-19-19---------|-X--X--X--X--X--X--X--X--X--X--X--X--X----------|-17-17-17-17-17-17-17-17-17-17-17-17-17---------|------------------------------------------------
Gtrs1&2|------------------------------------------------|------------------------------------------------|-------------------------------------7-7-7-7---- |---6-7-6-7----------6-7-6-7----------X-X-X-X---- |---4-4-4-4--0-0--0--4-4-4-4--0-0--0--5-5-5-5----|---4-4-4-4--0-0--0--4-4-4-4--0-0--0-------------P.M - - - -
Gtr1|------------------------------------------------|------------------------------------------------|------------------------------------------------|------------------------------------------------|-0-0-0-0-0-0-0-0-0-0-0-0-0-0-0-0-0-0------------|-0-0-0-0-0-0-0-0-0-0-0-0-0-0-0-0-0-0------------
Gtr2|------------------------------------------------|------------------------------------------------|-19-19-19-19-19-19-19-19-19-19-19-19-19---------|-X--X--X--X--X--X--X--X--X--X--X--X--X----------|-17-17-17-17-17-17-17-17-17-17-17-17-17---------|------------------------------------------------
Gtr1|------------------------------------------------|------------------------------------------------|------------------------------------------------|------------------------------------------------|-4-4-4-4-4-4-4-4-4-4-4-4-4-4-4-4-4-4-4-4-4------|-4-4-4-4-4-4-4-4-4-4-4-4-4-4-4-4-4-4-4-4-4------
Gtr2|------------------------------------------------|------------------------------------------------|-14-14-14-13-13-13-9-9-9/14-14-14-13-13-9-9-----|-X--X--X--X--X--X--X-X-X----X--X--X--X--X-X-----|-12-12-12-11-11-11-7-7-7/12-12-12-11-11-7-7-----|------------------------------------------------
Gtr1|------------------------------------------------|------------------------------------------------|------------------------------------------------|------------------------------------------------|-0-0-0-0-0-0-0-0-0-0-0-0-0-0-0-0-0--------------|-0-0-0-0-0-0-0-0-0-0-0-0-0-0-0-0-0--------------
Gtr2|----------0~-----------0~--------0~-------------|----------0~-----------0~--------0~-------------|-13/14-14-----13/14-14-----13/14----------------|-X-----X------X-----X------X--------------------|-11/12-12-----11/12-12-----11/12----------------|-0-----0------0-----0------0--------------------
Gtr1|------------------------------------------------|------------------------------------------------|------------------------------------------------|------------------------------------------------|-4-4-4-4-4-4-4-4-4-4-4-4-4-4-4-4-4-4-4-4-4------|-4-4-4-4-4-4-4-4-4-4-4-4-4-4-4-4-4-4-4-4-4------
Gtr2|------------------------------------------------|------------------------------------------------|-14-14-14-13-13-13-9-9-9/14-14-14-13-13-9-9-----|-X--X--X--X--X--X--X-X-X----X--X--X--X--X-X-----|-12-12-12-11-11-11-7-7-7/12-12-12-11-11-7-7-----|------------------------------------------------
Gtr1|---------------------------------------------------|---------------------------------------------------|---------------------------------------------------|---------------------------------------------------|-0-0-0-0-0-0-0-0-0-0-0-0-0-0-0-0-0-0-0-0-0-0-0-0---|-0-0-0-0-0-0-0-0-0-0-0-0-0-0-0-0-0-0-0-0-0-0-0-0---
Gtr2|-16-16-16-12-12-12-17-17-17-12-12-12--16/17\16\12--|-X--X--X--X--X--X--X--X--X--X--X--X---X------------|-13-13-13-9--9--9--14-14-14-9--9--9---13/14\13\9---|---------------------------------------------------|---------------------------------------------------|---------------------------------------------------
That's pretty much it. Some of the intro part repeats at the end just listen to it. I have tabbed this song listening to it VERY CAREFULLY many times so I am sure most of it could be right.
Please rate this tab:
x1.0