As I Lay Dying - Morning Waits tab

-------------------------------------------------------------------------------
			     MORNING WAITS - As I Lay Dying
-------------------------------------------------------------------------------
This is one of my favorite As I Lay Dying songs. There are other versions of this song 
but none of them sounded just right to me. Anyhow, this is how I play it. Please rate and comment!


Tabbed by: theoldwizard
Email: mrijameson@yahoo.com

Tuning: Drop C

Intro 2x|-----------------------------------------------------------------------------------||-----------------------------------------------------------------------------------||----------------------------10-9----------------------------------------10-12-10-9-||0-7-12-0-12-0-7-12-0-7-12-0------10-12---0-7-12-0-12-0-7-12-0-7-12-0---------------||-----------------------------------------------------------------------------------||-----------------------------------------------------------------------------------|
Intro part 2 1x|---------------------------------------------------------------------------||--------------------------10-8---------------------------------10-11-10-9--||----10----10--10----10---------9-10-----10----10--10----10-----------------||---------------------------------------------------------------------------||000---000-------000---000------------000---000-------000--000--------------||000---000---0---000---000------------000---000---0---000--000--------------|
... ... . ... ... ... ... . ... ...|-----------------------------------------------------------------------------------||--------------------------10-8-----------------------------------------------------||----10----10--10----10---------9-10--------10--------10--10-------10---------------||---------------------------------------------------------------------------9-10-9-7||888---888-------888---888------------101010---101010--------101010--101010---------||888---888---8---888---888------------101010---101010---10---101010--101010---------| ... ... . ... ... . . . . . . . . . . . . .
Verse x4|-----------------------------------------------------------------------||-----------------------------------------------------------------------||-----------------------------------------------------------------------||----10---9---10---7---10-9---10---7----10---9---10---7---10-9------7---||---------------------------------------------------------------10------||-00----0---0----0---0------0----0---00----0---0----0---0-----0---0-----| .. . . . . . . .. . . . . . .
Verse part 2 x4|---------------------------------------------------------------------------||---------------------------------------------------------------------------||---------------------------------------------------------------------------||---------------------------------------------------------------------------||12-12-0-0-15-15-0-0-14-14-0-0-10-10-0-0-12-12-0-0-15-15-0-0-14-14-0-0-17-17||---------------------------------------------------------------------------|
|---------------------------------------------------------------------------||---------------------------------------------------------------------------||---------------------------------------------------------------------------||---------------------------------------------------------------------------||0-0-12-12-0-0-15-15-0-0-14-14-0-0-10-10-0-0-8-8-0-0-7-7-0-0-8-8-0-0-10-10--||---------------------------------------------------------------------------|
Chorus|----------------------------------------------------------||----------------------------------------------------------||--9-------------------------------------------------------| x3|----10----12-10-9------12-9----10-9-----------------------||------12---------7/10------10------12-10h12---------------||----------------------------------------------------------|
|----------------------------------------------------------||----------------------------------------------------------||-9--------------------------------------------------------| x1|---10----12-10-9------17------(12)------------------------||------12---------7/15----15-------------------------------||---------------------------15-----------------------------|
|----------------------------------------------------------||----------------------------------------------------------||--9-------------------------------------------------------| x3|----10----12-10-9------12-9----10-9-----------------------||-------12---------7/10------10------12-10h12--------------||----------------------------------------------------------|
|----------------------------------------------------------||----------------------------------------------------------||--9-------------------------------------------------------| x1|----10----12-10-9------17------17-------------------------||-------12---------7/15---15------15---15------------------||----------------------------15-----15---------------------|
|----------------------------------------------------------||----------------------------------------------------------||--9-------------------------------------------------------| x3|----10-----12-10-9------12-9----10-9----------------------||12-------12---------7/10------10------12-10---------------||----------------------------------------------------------|
|----------------------------------------------------------||----------------------------------------------------------||----------------------------------------------------------| x1|---15--12----13-12-----------17-------17------------------||13--------13-------15--13/15----15-------15----15---------||-----------------------------------15-------15------------|
2nd Verse x1|---------------------------------------------------------------------------||---------------------------------------------------------------------------||---------------------------------------------------------------------------||---------------------------------------------------------------------------||--5---5---5--5---8-7-3-5----5----5---5----5---8-10-8-7---------------------||00--00--0--00--0---------00---00---0---00---0------------------------------|
.. .. . .. . .. .. . .. .|---------------------------------------------------------------------------||---------------------------------------------------------------------------||---------------------------------------------------------------------------||--0---0---0--0----------------0------0----0------0-------------------------||-----------------8-7-3-5--------------------------------8-10-8-7-----------||88--88--8--88--8---------1010---1010---10---1010---10----------------------|
.. .. . .. . . . . . . . . .|---------------------------------------------------------------------------||---------------------------------------------------------------------------||---------------------------------------------------------------------------||---------------------------------------------------------------------------||----8-----8---8-----8----12-10-7-8------8-----8---8-----8----12-13-12-10---||000---000---0---000---0-------------000---000---0---000---0----------------|
... ... . ... . ... ... . ... .|--------------------------------------------------------------------------------||--------------------------------------------------------------------------------||--------------------------------------------------------------------------------||------------------------------------------------------------------------9-10-9-7||----8-----8---8-----8----12-10-7-8---------8--------8----8--------8-------------||888---888---8---888---8-------------101010---101010---10---101010---10----------| ... ... . ... . . . . . . . . . . . .
Verse x2|-----------------------------------------------------------------------||-----------------------------------------------------------------------||-----------------------------------------------------------------------||----10---9---10---7---10-9---10---7----10---9---10---7---10-9------7---||---------------------------------------------------------------10------||-00----0---0----0---0------0----0---00----0---0----0---0-----0---0-----| .. . . . . . . .. . . . . . .
Verse part 2 x2|---------------------------------------------------------------------------||---------------------------------------------------------------------------||---------------------------------------------------------------------------||---------------------------------------------------------------------------||12-12-0-0-15-15-0-0-14-14-0-0-10-10-0-0-12-12-0-0-15-15-0-0-14-14-0-0-17-17||---------------------------------------------------------------------------|
|---------------------------------------------------------------------------||---------------------------------------------------------------------------||---------------------------------------------------------------------------||---------------------------------------------------------------------------||0-0-12-12-0-0-15-15-0-0-14-14-0-0-10-10-0-0-8-8-0-0-7-7-0-0-8-8-0-0-10-10--||---------------------------------------------------------------------------|
Chorus|----------------------------------------------------------||----------------------------------------------------------||--9-------------------------------------------------------| x3|----10----12-10-9------12-9----10-9-----------------------||-------12---------7/10------10------12-10h12--------------||----------------------------------------------------------|
|----------------------------------------------------------||----------------------------------------------------------||--9-------------------------------------------------------| x1|----10----12-10-9------17------17-------------------------||-------12---------7/15---15------15---15------------------||----------------------------15-----15---------------------|
|----------------------------------------------------------||----------------------------------------------------------||--9-------------------------------------------------------| x3|----10-----12-10-9------12-9----10-9----------------------||12-------12---------7/10------10------12-10---------------||----------------------------------------------------------|
|----------------------------------------------------------||----------------------------------------------------------||----------------------------------------------------------| x1|---15--12----13-12-----------17-------17------------------||13--------13-------15--13/15----15-------15----15---------||-----------------------------------15-------15------------|
Outro Repeat to end|---------------------------------------------------------------------------||---------------------------------------------------------------------------||--9h10---10h12---12---14p12---12p10---10-----------------------------------||-------0-------0----0-------0-------0----0---------------------------------||---------------------------------------------------------------------------||---------------------------------------------------------------------------| . . . . . .
That's it! Enjoy | / slide up | \ slide down | h hammer-on | p pull-off | ~ vibrato | () pinch harmonic | x Mute note . Palm mute ===============================================================================
Tap to rate this tab
 
# A B C D E F G H I J K L M N O P Q R S T U V W X Y Z