As I Lay Dying - Blood Turned To Tears tab

Blood Turned To Tears by As I Lay Dying

Tuning: Drop C

/ = slide up
\ = slide down
b = bend
b# = half bend(dont bend it so that it sounds like the next fret up, bend it until it 
about half way between the fret you bend and the next one up)
. = palm mute
~ = let ring

it was to hard to tell where the verses, chorus and interludes where so i didnt name any 
the riffs i just put them in order. enjoy!

|-------------||-------------||-----5/8-8\7-||0000---------||0000---------||0000---------| x4 ....
|----------------------------||----------------------------||----------------------------||0-00-1/4-3/6-0-00-5/8-8\7---||0-00-1/4-3/6-0-00-3/6-6\5---||0-00-1/4-3/6-0-00-----------| x4
|--------------------||--------------------||--------------------||---------77777------||---------------6666-||0000-888------------| x2 .... ... ..... ....
|----------- |----------||----------- |----------||----------- |----------||0-00---7--- |0000---7--||0-00-0--6-- |0000-0--6-||0-00------- x3 |0000------| x1
|-----------||-----------||-----------||------7----||-------6b#-||0-000------| x4 . ...
|----------------------- |---------------------------------||----------------------- |---------------------------------||----------------------- |---------------------------------||00000000--------------- |---------------------------------||00000000--------------- |---------------------------------||00000000-8\7-0-7\5-0-2b x3 |0000000000000000-8-7-5-7-5-3-2b--| x1
........ ................ |________________|-tremlo pick these notes|-------------------||-------------------||-------------------||-------------6-6-6-||--6--5b#-----------||0--0----00-00------| x4 . . .. ..
|--------------------||--------------------||--------------8-8-8-||0-8-0-7-00-00-6-6-6-||0-6-0-5-00-00-------||0---0---00-00-------| x2
|-------------||-------------||-----5/8-8\7-||0-00---------||0-00---------||0-00---------| x4
|-----------||-----------||-----5/8-7-||0-00-------||0-00-------||0-00-------| x4
|--------||--------||--------||0-0-0~--||0-0-0~--||0-0-0~--|
Tabbed By Jaxon Burn
Tap to rate this tab
 
# A B C D E F G H I J K L M N O P Q R S T U V W X Y Z