Asian Kung-fu Generation - Mirai No Kakera tab

Mirai no Kakera
Asian Kung-Fu Generation

Tabbed by:
Toshiro

Tuning:
Lead Guitar: E-A-D-G-B-E
Rhythm Guitar: E-A-D-G-B-E

---------------------------------------------------------------------------

LEAD GUITAR

Intro (Distorted, Nothing until 3rd time)|---------------------------||-------*-------------------||---------------------------||---------------------------||---------------------------||---------------------------|
|--------------------------------------||--------------------------------------||-9-9-9-9-9-9-9-9-9-9-9-9-9-7-7-9------||-x-x-x-x-x-x-x-x-x-x-x-x-x-x-x-x-(x4)-||-7-7-7-7-7-7-7-7-7-7-7-7-7-5-5-7------||--------------------------------------|
Verse (Distorted)|--------------------------------------||--------------------------------------||--------------------------------------||---------------7-7-7-7-7---------(x4)-||-2-2-2-2-7-7-7-5-5-5-5-5-7-5-5-5------||-0-0-0-0-5-5-5-----------5-3-3-3------|pm................................
Rhythm Figure (Distorted)|--------------------------------------||--------------------------------------||-9-9-9-9-9-9-9-9-9-9-9-9-9-7-7-9------||-x-x-x-x-x-x-x-x-x-x-x-x-x-x-x-x-(x2)-||-7-7-7-7-7-7-7-7-7-7-7-7-7-5-5-7------||--------------------------------------|
Verse (Distorted)|--------------------------------------||--------------------------------------||--------------------------------------||---------------7-7-7-7-7---------(x4)-||-2-2-2-2-7-7-7-5-5-5-5-5-7-5-5-5------||-0-0-0-0-5-5-5-----------5-3-3-3------|pm................................
Pre-Chorus (Clean)|----3-----5-----5-----||--------3----3-----3--||-0--------------------||-------------(x7)-----||----------------------||----------------------|
(Distorted)|---------------------------------------------||---------------------------------------------||-12--12-12-12-12-12-14-14-14-14-16-16-16-16--||-x---x--x--x--x--x--x--x--x--x--x--x--x--x---||-10--10-10-10-10-10-12-12-12-12-14-14-14-14--||---------------------------------------------|
Chorus (Distorted)|--------------------------------------------||--------------------------------------------||-14-12--14-12--14--14-12--14-12--17-16------||-x--x---x--x---x---x--x---x--x---x--x--(x2)-||-12-10--12-10--12--12-10--12-10--15-14------||--------------------------------------------|
|----------------------------------||----------------------------------||-14-12--14-12--14--14--14--12-----||-x--x---x--x---x---x---x---x------||-12-10--12-10--12--12--12--10-----||----------------------------------|
(Clean)|-----3-------3-------3-------3-||---3---3---3---3---3---3---3---||-5-------4-------2-------0-----||-------------------------------||-------------------------------||-------------------------------|
Interlude (Distorted, Nothing until 3rd time)|-------------------------------------------||-------------------------------------------||-12-12--12-12--12-12--12-12--12/14-14------||-x--x---x--x---x--x---x--x---x-----x---(x4)||-10-10--10-10--10-10--10-10--10/12-12------||-------------------------------------------|
|-------0------0-----||----------0------0--||--------------------||-2------------------||-2------------------||-0------------------|
Verse (Distorted)|-----------------------------------------------------------------||-----------------------------------------------------------------||----------------------------------------------------------(x2)---||-----------------4-4-4-4-4-4-4-4-5-5-5-5-5-5-5-5-----------------||-2-2-2-2-2-2-2-2-2-2-2-2-2-2-2-2-3-3-3-3-3-3-3-3-5-5-5-5-5-5-5-5-||-0-0-0-0-0-0-0-0---------------------------------3-3-3-3-3-3-3-3-|pm................................................................
|--------------------------------------||--------------------------------------||-9-9-9-9-9-9-9-9-9-9-9-9-9-7-7-9------||-x-x-x-x-x-x-x-x-x-x-x-x-x-x-x-x-(x3)-||-7-7-7-7-7-7-7-7-7-7-7-7-7-5-5-7------||--------------------------------------|
|-----------------------------------------||-----------------------------------------||-9-9-9-9-9-9-9-9-16-16-16-16-16-16-16-16-||-x-x-x-x-x-x-x-x-x--x--x--x--x--x--x--x--||-7-7-7-7-7-7-7-7-14-14-14-14-14-14-14-14-||-----------------------------------------|
Chorus (Distorted, Nothing until 2nd time)|---------------------||---------------------||-------------17--16--||-------------x---x---||-------------15--14--||---------------------|
|----------------------------------------||----------------------------------------||-14-12--14-12--14--14-12--14-12--17-16--||-x--x---x--x---x---x--x---x--x---x--x---||-12-10--12-10--12--12-10--12-10--15-14--||----------------------------------------|
|----------------------------------||----------------------------------||-14-12--14-12--14--14--14--12-----||-x--x---x--x---x---x---x---x------||-12-10--12-10--12--12--12--10-----||----------------------------------|
Interlude (Distorted)|-------------------------------------------------||-------------------------------------------------||-14-14-14-14-14-14-14-14-12-12-12-12-12-12-12-12-||-x--x--x--x--x--x--x--x--x--x--x--x--x--x--x--x--||-12-12-12-12-12-12-12-12-10-10-10-10-10-10-10-10-||-------------------------------------------------|
|---------------------------------||---------------------------------||-7-7-7-7-7-7-7-7-5-5-5-4-4-4-5-5-||-x-x-x-x-x-x-x-x-x-x-x-x-x-x-x-x-||-5-5-5-5-5-5-5-5-3-3-3-2-2-2-3-3-||---------------------------------|
|-------------------------------------------------||-------------------------------------------------||-14-14-14-14-14-14-14-14-12-12-12-12-12-12-12-12-||-x--x--x--x--x--x--x--x--x--x--x--x--x--x--x--x--||-12-12-12-12-12-12-12-12-10-10-10-10-10-10-10-10-||-------------------------------------------------|
|---------------------------------||---------------------------------||-7-7-7-7-7-7-7-7-5-5-5-4-4-4-5-5-||-x-x-x-x-x-x-x-x-x-x-x-x-x-x-x-x-||-5-5-5-5-5-5-5-5-3-3-3-2-2-2-3-3-||---------------------------------|
|---------------------------------------------------------------------------||---------------------------------------------------------------------------||-16-----16--16-16-19-----19--19-19-17-----17--17-17-16-----16--17--17--16--||-x------x---x--x--x------x---x--x--x------x---x--x--x------x---x---x---x---||-14-----14--14-14-17-----17--17-17-15-----15--15-15-14-----14--15--15--14--||---------------------------------------------------------------------------|
|---------------------------------------------------------------------------------||---------------------------------------------------------------------------------||-19--19-19-19--19-19--17-17--17-17-17-17-19--19-19-19--19-19--17-17--17-17-17-17-||-x---x--x--x---x--x---x--x---x--x--x--x--x---x--x--x---x--x---x--x---x--x--x--x--||-17--17-17-17--17-17--15-15--15-15-15-15-17--17-17-17--17-17--15-15--15-15-15-15-||---------------------------------------------------------------------------------|
|--------------------------------------------------------------------------||--------------------------------------------------------------------------||-19--19-19-19--19-19--17-17--17-17-17-17-16--16-16-16--16--16--17-17--16--||-x---x--x--x---x--x---x--x---x--x--x--x--x---x--x--x---x---x---x--x---x---||-17--17-17-17--17-17--15-15--15-15-15-15-14--14-14-14--14-14---15-15--14--||--------------------------------------------------------------------------|
Pre-Chorus (Clean)|---3-----5---5---||-------3---3---3-||-0---------------||------------(x7)-||-----------------||-----------------|
Chorus (Distorted)|--------------------------------------------||--------------------------------------------||-14-12--14-12--14--14-12--14-12--17-16------||-x--x---x--x---x---x--x---x--x---x--x--(x2)-||-12-10--12-10--12--12-10--12-10--15-14------||--------------------------------------------|
|----------------------------------||----------------------------------||-14-12--14-12--14--14--14--12-----||-x--x---x--x---x---x---x---x------||-12-10--12-10--12--12--12--10-----||----------------------------------|
|-----------------------------------------------------------------||-----------------------------------------------------------------||-----------------------------------------------------------------||-5-5-5-5-5-5-5-5-5-5-5-5-5-5-5-5-7-7-7-7-7-7-7-7---------5-5-5-5-||-3-3-3-3-3-3-3-3-2-2-2-2-2-2-2-2-5-5-5-5-5-5-5-5-5-5-5-5-5-5-5-5-||-------------------------------------------------3-3-3-3-3-3-3-3-|pm........................................................
Outro (Distorted)|-------------------------------------------------||-------------------------------------------------||-14-14-14-14-14-14-14-14-12-12-12-12-12-12-12-12-||-x--x--x--x--x--x--x--x--x--x--x--x--x--x--x--x--||-12-12-12-12-12-12-12-12-10-10-10-10-10-10-10-10-||-------------------------------------------------|
|---------------------------------||---------------------------------||-7-7-7-7-7-7-7-7-5-5-5-4-4-4-5-5-||-x-x-x-x-x-x-x-x-x-x-x-x-x-x-x-x-||-5-5-5-5-5-5-5-5-3-3-3-2-2-2-3-3-||---------------------------------|
|-------------------------------------------------||-------------------------------------------------||-14-14-14-14-14-14-14-14-12-12-12-12-12-12-12-12-||-x--x--x--x--x--x--x--x--x--x--x--x--x--x--x--x--||-12-12-12-12-12-12-12-12-10-10-10-10-10-10-10-10-||-------------------------------------------------|
|---------------------------------||---------------------------------||-7-7-7-7-7-7-7-7-5-5-5-4-4-4-5-5-||-x-x-x-x-x-x-x-x-x-x-x-x-x-x-x-x-||-5-5-5-5-5-5-5-5-3-3-3-2-2-2-3-3-||---------------------------------|
|-------------------------------------------------||-------------------------------------------------||-14-14-14-14-14-14-14-14-12-12-12-12-12-12-12-12-||-x--x--x--x--x--x--x--x--x--x--x--x--x--x--x--x--||-12-12-12-12-12-12-12-12-10-10-10-10-10-10-10-10-||-------------------------------------------------|
|---------------------------------||---------------------------------||-7-7-7-7-7-7-7-7-5-5-5-4-4-4-5-5-||-x-x-x-x-x-x-x-x-x-x-x-x-x-x-x-x-||-5-5-5-5-5-5-5-5-3-3-3-2-2-2-3-3-||---------------------------------|
|-------------------------------------------------||-------------------------------------------------||-14-14-14-14-14-14-14-14-12-12-12-12-12-12-12-12-||-x--x--x--x--x--x--x--x--x--x--x--x--x--x--x--x--||-12-12-12-12-12-12-12-12-10-10-10-10-10-10-10-10-||-------------------------------------------------|
|-------------------------------------------------||-------------------------------------------------||-11-11-11-11-11-11-11-11-12-12-12-12-12-12-12-12-||-x--x--x--x--x--x--x--x--x--x--x--x--x--x--x--x--||-9--9--9--9--9--9--9--9--10-10-10-10-10-10-10-10-||-------------------------------------------------|
|-------------------------------------------------||-------------------------------------------------||-16-16-16-16-16-16-16-16-16-16-16-16-16-16-16-16-||-x--x--x--x--x--x--x--x--x--x--x--x--x--x--x--x--||-14-14-14-14-14-14-14-14-14-14-14-14-14-14-14-14-||-------------------------------------------------|
|-------------------------------------------------||-------------------------------------------------||-19-19-19-19-19-19-19-19-17-17-17-17-17-17-17-17-||-x--x--x--x--x--x--x--x--x--x--x--x--x--x--x--x--||-17-17-17-17-17-17-17-17-15-15-15-15-15-15-15-15-||-------------------------------------------------|
|-------------------------------------------------||-------------------------------------------------||-16-16-16-16-16-16-16-16-16-16-17-17-17-17-16-16-||-x--x--x--x--x--x--x--x--x--x--x--x--x--x--x--x--||-14-14-14-14-14-14-14-14-14-14-15-15-15-15-14-14-||-------------------------------------------------|
|---------------------------------------------||---------------------------------------------||-19-19-19-19-19-19-19-19--17-17--17-17-17-17-||-x--x--x--x--x--x--x--x---x--x---x--x--x--x--||-17-17-17-17-17-17-17-17--15-15--15-15-15-15-||---------------------------------------------|
|---------------------------------------------||---------------------------------------------||-19-19-19-19-19-19-19-19--17-17--17-17-17-17-||-x--x--x--x--x--x--x--x---x--x---x--x--x--x--||-17-17-17-17-17-17-17-17--15-15--15-15-15-15-||---------------------------------------------|
|---------------------------------------------||---------------------------------------------||-19-19-19-19-19-19-19-19--17-17--17-17-17-17-||-x--x--x--x--x--x--x--x---x--x---x--x--x--x--||-17-17-17-17-17-17-17-17--15-15--15-15-15-15-||---------------------------------------------|
|-------------------------------------------------||-------------------------------------------------||-16-16-16-16-16-16-16-16-16-16-17-17-17-17-16-16-||-x--x--x--x--x--x--x--x--x--x--x--x--x--x--x--x--||-14-14-14-14-14-14-14-14-14-14-15-15-15-15-14-14-||-------------------------------------------------|
|---------------------------------------------||---------------------------------------------||-19-19-19-19-19-19-19-19--17-17--17-17-17-17-||-x--x--x--x--x--x--x--x---x--x---x--x--x--x--||-17-17-17-17-17-17-17-17--15-15--15-15-15-15-||---------------------------------------------|
|---3-----5---5---||-------3---3---3-||-0---------------||------------(x3)-||-----------------||-----------------|
|---3-----5-||-------3---||-0---------||-----------||-----------||-----------|
--------------------------------------------------------------------------- RHYTHM GUITAR (All Distorted)
Intro (x8)|------------------------------||------------------------------||--------------7--7-7--7-7-----||-2--2-2-7-7-7-7--7-7--7-7-5-5-||-2--2-2-7-7-7-5--5-5--5-5-5-5-||-0--0-0-5-5-5-------------3-3-|
Verse|-------------||-------------||-------------||---NOTHING---||-------------||-------------|
Rhythm Figure (x2)|------------------------------||------------------------------||--------------7--7-7--7-7-----||-2--2-2-7-7-7-7--7-7--7-7-5-5-||-2--2-2-7-7-7-5--5-5--5-5-5-5-||-0--0-0-5-5-5-------------3-3-|
Verse|-------------||-------------||-------------||---NOTHING---||-------------||-------------|
Pre-Chorus|-----------------------------------------------------------||-----------------------------------------------------------||-4-4-4-4-4--4-4-4-4-4--4-4-4--5-5-5-5-5--5-5-5-5-5--5-5-5--||-5-5-5-5-5--5-5-5-5-5--5-5-5--5-5-5-5-5--5-5-5-5-5--5-5-5--||-2-2-2-2-2--2-2-2-2-2--2-2-2--3-3-3-3-3--3-3-3-3-3--3-3-3--||-----------------------------------------------------------|
|-----------------------------------------------------------||-----------------------------------------------------------||-7-7-7-7-7--7-7-7-7-7--7-7-7--9-9-9-9-9--9-9-9-9-9--9-9-9--||-7-7-7-7-7--7-7-7-7-7--7-7-7--9-9-9-9-9--9-9-9-9-9--9-9-9--||-5-5-5-5-5--5-5-5-5-5--5-5-5--7-7-7-7-7--7-7-7-7-7--7-7-7--||-----------------------------------------------------------|
|-----------------------------------------------------------||-----------------------------------------------------------||-5-5-5-5-5--5-5-5-5-5--5-5-5--4-4-4-4-4--4-4-4-4-4--4-4-4--||-5-5-5-5-5--5-5-5-5-5--5-5-5--5-5-5-5-5--5-5-5-5-5--5-5-5--||-3-3-3-3-3--3-3-3-3-3--3-3-3--2-2-2-2-2--2-2-2-2-2--2-2-2--||-----------------------------------------------------------|
|-------------------------------------------------------------||-------------------------------------------------------------||-7-7-7-7-7--7-7-7-7-7--7-7-7---------------------------------||-7-7-7-7-7--7-7-7-7-7--7-7-7--5--5-5-5-5-5-5-7-7-7-7-9-9-9-9-||-5-5-5-5-5--5-5-5-5-5--5-5-5--5--5-5-5-5-5-5-7-7-7-7-9-9-9-9-||------------------------------3--3-3-3-3-3-3-5-5-5-5-7-7-7-7-|
Chorus|-----------------------------------------------------------------||---------------------------------------------------------(x2)----||-5-5-5-5-5-5-5-5-4-4-4-4-4-4-4-4-7-7-7-7-7-7-7-7-----------------||-5-5-5-5-5-5-5-5-5-5-5-5-5-5-5-5-7-7-7-7-7-7-7-7-5-5-5-5-5-5-5-5-||-3-3-3-3-3-3-3-3-2-2-2-2-2-2-2-2-5-5-5-5-5-5-5-5-5-5-5-5-5-5-5-5-||-------------------------------------------------3-3-3-3-3-3-3-3-|
|-------------------------------------------------||-------------------------------------------------||-5-5-5-5-5-5-5-5-4-4-4-4-4-4-4-4-7--x-7--x-------||-5-5-5-5-5-5-5-5-5-5-5-5-5-5-5-5-7--x-7--x-5-----||-3-3-3-3-3-3-3-3-2-2-2-2-2-2-2-2-5--x-5--x-5-----||-------------------------------------------3-----|
|-------------------------------------------||-------------------------------------------||-------------------------------------------||--------------------------------------5-5--||--------------------------------------5-5--||--------------------------------------3-3--|
Interlude|--------------------------------||--------------------------------||-5-5--4-4--5-5--4-4--5/7-7------||-5-5--5-5--5-5--5-5--5/7-7-(x6)-||-3-3--2-2--3-3--2-2--3/5-5------||--------------------------------|
|-------||-------||-------||-2-----||-2-----||-0-----|
Verse (x2, Nothing until 3rd time)|-----------------------------------------------------------------||-----------------------------------------------------------------||-----------------4-4-4-4-4-4-4-4-5-5-5-5-5-5-5-5-----------------||-2-2-2-2-2-2-2-2-4-4-4-4-4-4-4-4-5-5-5-5-5-5-5-5-5-5-5-5-5-5-5-5-||-2-2-2-2-2-2-2-2-2-2-2-2-2-2-2-2-3-3-3-3-3-3-3-3-5-5-5-5-5-5-5-5-||-0-0-0-0-0-0-0-0---------------------------------3-3-3-3-3-3-3-3-|
Chorus|-----------------------------------------------------||-----------------------------------------------------||-5--x-x-5--5--4--x-x-4--4--7--x-x-7--7---------------||-5--x-x-5--5--5--x-x-5--5--7--x-x-7--7--5--x-x-5--5--||-3--x-x-3--3--2--x-x-2--2--5--x-x-5--5--5--x-x-5--5--||----------------------------------------3--x-x-3--3--|
|--------------------------------------------------------||--------------------------------------------------------||-5--x-x-5--5--4--x-x-4--4--7--x-x-7--7------------------||-5--x-x-5--5--5--x-x-5--5--7--x-x-7--7--5-5-5-5-5-5-5-5-||-3--x-x-3--3--2--x-x-2--2--5--x-x-5--5--5-5-5-5-5-5-5-5-||----------------------------------------3-3-3-3-3-3-3-3-|
|-----------------------------------------------------------------||---------------------------------------------------------(x2)----||-5-5-5-5-5-5-5-5-4-4-4-4-4-4-4-4-7-7-7-7-7-7-7-7-----------------||-5-5-5-5-5-5-5-5-5-5-5-5-5-5-5-5-7-7-7-7-7-7-7-7-5-5-5-5-5-5-5-5-||-3-3-3-3-3-3-3-3-2-2-2-2-2-2-2-2-5-5-5-5-5-5-5-5-5-5-5-5-5-5-5-5-||-------------------------------------------------3-3-3-3-3-3-3-3-|
Interlude|-----------------------------------------------------------------||---------------------------------------------------------(x2)----||-5-5-5-5-5-5-5-5-4-4-4-4-4-4-4-4-7-7-7-7-7-7-7-7-----------------||-5-5-5-5-5-5-5-5-5-5-5-5-5-5-5-5-7-7-7-7-7-7-7-7-5-5-5-5-5-5-5-5-||-3-3-3-3-3-3-3-3-2-2-2-2-2-2-2-2-5-5-5-5-5-5-5-5-5-5-5-5-5-5-5-5-||-------------------------------------------------3-3-3-3-3-3-3-3-|
|-----------------------------------------------------||--------------------------------------------(x2)-----||-5-----5--5-5-4-----4--4-4-7-----7--7-7--------------||-5-----5--5-5-5-----5--5-5-7-----7--7-7-5--------5-5-||-3-----3--3-3-2-----2--2-2-5-----5--5-5-5--------5-5-||----------------------------------------3--------3-3-|
Pre-Chorus (Nothing until after Lead's 7th time)|--------------------------||--------------------------||-7------------------------||-7--7-7-7-7-7-7-5-5-5-5-5-||-5--5-5-5-5-5-5-5-5-5-5-5-||----------------3-3-3-3-3-|pm ............
Chorus|-----------------------------------------------------------------||---------------------------------------------------------(x2)----||-5-5-5-5-5-5-5-5-4-4-4-4-4-4-4-4-7-7-7-7-7-7-7-7-----------------||-5-5-5-5-5-5-5-5-5-5-5-5-5-5-5-5-7-7-7-7-7-7-7-7-5-5-5-5-5-5-5-5-||-3-3-3-3-3-3-3-3-2-2-2-2-2-2-2-2-5-5-5-5-5-5-5-5-5-5-5-5-5-5-5-5-||-------------------------------------------------3-3-3-3-3-3-3-3-|
|-------------------------------------------------||-------------------------------------------------||-5-5-5-5-5-5-5-5-4-4-4-4-4-4-4-4-7--x-7--x-------||-5-5-5-5-5-5-5-5-5-5-5-5-5-5-5-5-7--x-7--x-5-----||-3-3-3-3-3-3-3-3-2-2-2-2-2-2-2-2-5--x-5--x-5-----||-------------------------------------------3-----|
Outro|-----------------------------------------------------||--------------------------------------------(x4)-----||-5--x-x-5--5--4--x-x-4--4--7--x-x-7--7---------------||-5--x-x-5--5--5--x-x-5--5--7--x-x-7--7--5--x-x-5--5--||-3--x-x-3--3--2--x-x-2--2--5--x-x-5--5--5--x-x-5--5--||----------------------------------------3--x-x-3--3--|
|-----------------------------------------------------------------||---------------------------------------------------------(x4)----||-5-5-5-5-5-5-5-5-4-4-4-4-4-4-4-4-7-7-7-7-7-7-7-7-----------------||-5-5-5-5-5-5-5-5-5-5-5-5-5-5-5-5-7-7-7-7-7-7-7-7-5-5-5-5-5-5-5-5-||-3-3-3-3-3-3-3-3-2-2-2-2-2-2-2-2-5-5-5-5-5-5-5-5-5-5-5-5-5-5-5-5-||-------------------------------------------------3-3-3-3-3-3-3-3-|
|---------------||---------------||-5-------------||-5-------------||-3-------------||---------------|
Tap to rate this tab
 
# A B C D E F G H I J K L M N O P Q R S T U V W X Y Z