Astor Piazzolla - Verano Porte1089o Tango tab

E||--------------|-------------------------|----------------------------|B||--------------|-------------------------|----------------------------|G||--------------|-------------------------|-------------0--------------|D||--------------|-----2-------3-----------|-----2----------3--2--3-----|A||--------------|--0-------0--------------|--0-------0-----------------|E||--1--2--3--4--|------------------0------|-------------------------0--|
-------------------------|---------------------------|------------------------|-------------------------|---------------------------|------------------------|-------------------------|-------------0-------------|------------------------|-----2-------3-----------|-----2----------3-2-3------|-----2-------3----------|-------------------------|---------------------------|--0-------0-------------|--4-------4-------0------|--4-------4-------------0--|------------------0-----|
----------------------------|-------------------------|----------------------------|-------------------------|-------------0--------------|-------------------------|-----2----------3--2--3-----|-----2-------3-----------|--0-------0-----------------|-------------------------|-------------------------0--|--4-------4-------0------|
----------------------------|-----0-------1-----------|----------------------------|-----1-------1-----------|-------------0--------------|-------------------------|-----2----------3--2--3-----|-----2-------3-----------|----------------------------|--0-------0--------------|--4-------4--------------0--|------------------0------|
-----0-------3--1--0--1------|-----0-------1-----------|-----1-------1--------1------|-----0-------0-----------|-------------0---------------|-------------------------|-----2----------------3------|-----2-------3-----------|--0-------0------------------|-------------------------|----------------------0------|--4-------4-------0------|
-----0-------3--1--0--1------|-----0---------1-------------|-----0-------0---------------|-----1---------1-------------|-------------0--------2------|-----------------------------|-----2----------------3------|-----2---------3-------------|-----------------------------|--0-----2------3-------------|--4-------4-----------0------|----------------------0------|
-----0---------3--1--0--1------|-----0---------1-------------|-----1---------0--------1------|-----0---------0-------------|-----2---------0---------------|-----------------------------|------------------------3------|-----2---------3-------------|--0-----3------2--------0------|--------0------2-------------|-------------------------------|--4-------------------0------|
-----0---------3--1-----1------|-----------0--3--1--0--1--8--|-----0---------0-----3--0------|--------1--------------------|-----1---------1--------2------|-----2-----------------------|--2-----0----------------------|-----------------------------|---------------3--------2------|--0--------------------------|-------------------------------|-----------------------------|
---------------0--------------|--------------1--0-----0--7--|---------------0-----3-----1--|--------0--3--------3--------|---------------2-----0-----2--|-----1-----------------------|---------------------0-----3--|-----------------------------|--0----0-2--3-----2-----0-----|-----------------------------|-------6----------------------|--4--------------------------|
---------------------------|-----------0--3--1-0-1---8--|------------3-----1-----0--|--------1-------------------|------------2-----1-----1--|-----2----------------------|------------3-----2-----3--|----------------------------|---------------------------|--0-------------------------|--0------1-----0-----0-----|----------------------------|
---------------0--------------|--------------1--0---0---7--|---------------0-----3-----1--|--------0--3-------3--------|---------------2-----0-----2--|-----1----------------------|---------------------0-----3--|----------------------------|--0----0-2--3-----2-----0-----|----------------------------|-------6----------------------|--4-------------------------|
---------------------------|-----5-5-5-5---5------0--0--0--0----|------------3-----1-----0--|-----5-5-5-5---5------10-10-10-10---|------------2-----1-----1--|-----5-5-5-5---5------8--8--8--8----|------------3-----2-----3--|----------------------9--9--9--9----|---------------------------|------------------------------------|--0------1-----0-----0-----|--8--------------7-7----------------|
-----5-5-5-5---5------5-5-5-5---|--------1--5--8--7-5-8---13--|-----5-5-5-5---5------5-5-5-5---|-----3-------------------12--|-----7-7-7-7---7------6-6-6-6---|-----------------------------|-----8-8-8-8---8------5-5-5-5---|--0--------------------------|--2--------------0-0------------|-----------------------------|--6-----------------------------|-----------------------------|
---------------------------|--------0--3--7--5-3-7---12--|---------------------------|-----1-------------------11--|-------0------0------------|-----------------------------|----2-----3-2---3-2-----0--|-----------------------------|---------------------------|--3--------------------------|---------------------------|-----------------------------|
---------------------------|-----------1--5--3-1-5------|---------------------------|-----0--3-------------------|---------------------------|----------------------------|----0--3--2-0-3-2-0--------|----------------------------|------------------------3--|--2-------------------------|---------------------------|-------------------------0--|
-----------0--3--1-0-0------|--0------------------------|--------0------------8------|--0------------------------|-----2---------------7------|--0------------------------|---------------------6------|--3-------2--0------2------|---------------------7------|--2------------------------|--1------------------0------|--0------------------------|
------------------------------|----------0--3--1-0-1---8--|------------------------------|-------1-------------------|--0-------2--0----------------|----2----------------------|------------------------------|---------------------------|----------------------------0-|---------------------------|--------------------1-2-3-4---|---------------------------|
-------------0--------------|--------------1--0---0---7--|-------------0-----3-----1--|--------0--3-------4--------|-------------2-----0-----2--|-----1----------------------|-------------------0-----3--|----------------------------|--0----2-3------2-----0-----|----------------------------|----------------------------|--4-------------------------|
---------------------------|-----------0--3--1-0-1---8--|------------3-----1-----0--|--------1-------------------|------------2-----1-----1--|-----2----------------------|------------3-----2-----3--|----------------------------|---------------------------|--0-------------------------|--0------1-----0-----0-----|----------------------------|
-------------0--------------|--------------1--0---0---7--|-------------0-----3-----1--|--------0--3-------4--------|-------------2-----0-----2--|-----1----------------------|-------------------0-----3--|----------------------------|--0----2-3------2-----0-----|----------------------------|----------------------------|--4-------------------------|
---------------------------|---------------0-5------------|------------3-----1-----0--|-----------0-1----------------|------------2-----1-----1--|---------2--------------------|------------3-----2-----3--|-----2-3----------------------|---------------------------|--0---------------------------|--0------1-----0-----0-----|-----------------------0------|
---------------0-5--------------0-|-------------------------------|-----------0-1-------0--1-1-3-3---|----1---3-1-0------------------|---------2------------------------|----2---------2----------------|-----2-3--------------------------|----3-------------2--3---------|--0-----------------------------0-|-----------------------3-3-2-0-|----------------------------------|-------------------------------|
------------------------------0-|------------------------------|----1---3-1-0-------0-1-1-3-3---|--------3-3-1-0---------------|----2---------2-1-2-------------|----1-------------1-----------|----3---------------------------|----3-------------3-----------|--------------------------------|----2-------------2-----------|------------------------------0-|--------------0-------0-1-3-4-|
--------------------------0-0-1-|--------0----------------------|----------0-------0-1-3-3-------|----------3-1------------------|----4---5---2-1-2---------------|----3---------3----------------|----3---------------------------|----3-------------3------------|----5---------------------------|------------------7------------|------------------------------3-|--------------3----------0-1-3-|
--------------------0-1-1-3-3-5-|----------------------------|----0---1-0---0-1-3-------------|--------------3------3------|------------2-------------------|----2---------2------2------|----2---------------------------|----2---------2------2------|--------------------------------|--------------5------5------|------------------------------2-|-----------2----------------|
--5----------------0-----5-|-------0-1-----------3-5-3-1-0-------|--3-------------3-----3----|-----1-------------------------3-1-0-|---------------------------|---2---------------------------------|-------------------------0-|-------------------------------------|---------------------------|-------------0-2-3-------------------|---------------------------|-----------------------------------3-|
-----------------0--1-0---0-1-3-|----0-----------3-1-0-----------|--------------3---------3-------|----0-----------------3-1-0---0-|-----------5--------------------|----0-----------------------2-2-|----3---------------------------|------------------------------1-|----5-------------------------3-|-------------2------0---------3-|--------------4-----------------|------------------------------1-|
-----------------------------0-1-|--------------3-1-0-----------|-------------0-1-0-3-1-0-1-3---0-|----0---------------3-1-0---0-|----2------2-------------------2-|----2---------------------2-2-|----1--------------------------0-|----0-----------------------1-|----3--------------------------2-|---------0--2---------------3-|---------------------------------|----------------------------1-|
---------------------------------|--------------0-------------0-|-----0---0-------0-1-0-3-1-0---0-|--------------8--0------3-3---|---2---2-----2---------------2-1-|--------------7-----5-5-------|-------------1-----------------2-|--------2-----6---------------|-------------3-----------------2-|--------2-----7-------------0-|-------------------------------0-|--------------0---------------|
-------------------------|---------------------------|----1--------------------|-----1------0--1--1--3--3--|----2-------2------------|-----2---------2-----------|----2-------2------------|-----3---------3-----------|---------3---------------|--0------------0-----------|-------------------0-2-4-|---------------------------|
--0-------------------------|---------------------0--0--|-------------0--------------|-----0------1--3--3--------|-----0-------0--------------|---------------4-----------|-----4-------4--------------|-----3---------3-----------|-----2----------------------|---------------------------|--0-------4-----------0-2-3-|--4------------3-----------|
--1-----------------------|------------0--1--1--3--3--|-----0-------0------------|-----0---------------------|--------------------------|---------------------------|-----3-------3------------|-----3---------------------|-------------7------------|---------------0-----------|--3-------3-----------0-1-|--4------------------------|
--5------------------------|--5---5------5--5--3--1-0-1-3-5-|-------------3------3------|--3-----------------------------|-----0-------2------2------|--------------------------------|-----4-------2------2------|------------------------------0-|-------------5------5------|--------------------------------|--2-------2----------------|--------------------------------|
----1---------3--5--5-----|--0--1--3--------------------|----1---------3--------6--|--0--------------------------|----2---------4-----------|--0-----------2--------------|--------------------------|--------------1----3-2-0-----|--------------------------|--3-----------3----------3-2-|-----------0--3-----------|-----------0--1--------------|
----0------0-----0------0--|--0-------0-----------------------|----3------3-----1------1--|--12------11------10------0-------|----2------2-----0------0--|--10------0-------8-------13------|----3------3--0------------|--12------11------10------13------|--------------2------------|--11--------------9-------16------|--------------0------------|--------------------------13------|
--0------0------0----------|--------------|-------------------------|--8------7------6----------|--------------|-------------------------|--6------5------3----------|--------------|-------------------------|--8------7------6----------|--------------|-----2-------3-----------|--7------6------5----------|--------------|--0-------0--------------|---------------------------|--1--2--3--4--|------------------0------|
----------------------------|-------------------------|----------------------------|-------------------------|-------------0--------------|-------------------------|-----2----------3--2--3-----|-----2-------3-----------|--0-------0-----------------|-------------------------|-------------------------0--|--4-------4-------0------|
----------------------------|-------------------------|----------------------------|-------------------------|-------------0--------------|-------------------------|-----2----------3--2--3-----|-----2-------3-----------|----------------------------|--0-------0--------------|--4-------4--------------0--|------------------0------|
----------------------------|-------------------------|----------------------------|-------------------------|-------------0--------------|-------------------------|-----2----------3--2--3-----|-----2-------3-----------|--0-------0-----------------|-------------------------|-------------------------0--|--4-------4-------0------|
----------------------------|-----0-------1-----------|----------------------------|-----1-------1-----------|-------------0--------------|-------------------------|-----2----------3--2--3-----|-----2-------3-----------|----------------------------|--0-------0--------------|--4-------4--------------0--|------------------0------|
-----0-------3--1--0--1------|-----0-------1-----------|-----1-------1--------1------|-----0-------0-----------|-------------0---------------|-------------------------|-----2----------------3------|-----2-------3-----------|--0-------0------------------|-------------------------|----------------------0------|--4-------4-------0------|
-----0-------3--1--0--1------|-----0---------1-------------|-----0-------0---------------|-----1---------1-------------|-------------0--------2------|-----------------------------|-----2----------------3------|-----2---------3-------------|-----------------------------|--0-----2------3-------------|--4-------4-----------0------|----------------------0------|
-----0---------3--1--0--1------|-----0---------1-------------|-----1---------0--------1------|-----0---------0-------------|-----2---------0---------------|-----------------------------|------------------------3------|-----2---------3-------------|--0-----3------2--------0------|--------0------2-------------|-------------------------------|--4-------------------0------|
-----0---------3--1-----1------|-----------0--3--1--0--1--8--|-----0---------0-----3--0------|--------1--------------------|-----1---------1--------2------|-----2-----------------------|--2-----0----------------------|-----------------------------|---------------3--------2------|--0--------------------------|-------------------------------|-----------------------------|
---------------0--------------|--------------1--0-----0--7--|---------------0-----3-----1--|--------0--3--------3--------|---------------2-----0-----2--|-----1-----------------------|---------------------0-----3--|-----------------------------|--0----0-2--3-----2-----0-----|-----------------------------|-------6----------------------|--4--------------------------|
---------------------------|-----------0--3--1--0--1--8--|------------3-----1-----0--|--------1--------------------|------------2-----1-----1--|-----2-----------------------|------------3-----2-----3--|-----------------------------|---------------------------|--0--------------------------|--0------1-----0-----0-----|-----------------------------|
---------------0--------------|--------------1--0-----0--7--|---------------0-----3-----1--|--------0--3--------3--------|---------------2-----0-----2--|-----1-----------------------|---------------------0-----3--|-----------------------------|--0----0-2--3-----2-----0-----|-----------------------------|-------6----------------------|--4--------------------------|
---------------------------|-----5--5--5--5--5------0---0---0---0---|------------3-----1-----0--|-----5--5--5--5--5------10--10--10--10--|------------2-----1-----1--|-----5--5--5--5--5------8---8---8---8---|------------3-----2-----3--|------------------------9---9---9---9---|---------------------------|--3----------------2-2------------------|--0------1-----0-----0-----|----------------------------------------|
-----5--5--5--5--5------5--5--5--5--|--------1--5--8--7--5--8--13--|-----5--5--5--5--5------5--5--5--5--|-----3--------------------12--|-----7--7--7--7--7------6--6--6--6--|------------------------------|-----8--8--8--8--8------5--5--5--5--|--0---------------------------|--2----------------0-0--------------|------------------------------|--6---------------------------------|------------------------------|
-------------------------------|--------0--3--7--5--3--7--12--|-------------------------------|-----1--------------------11--|-------0--------0--------------|------------------------------|----2-----3--2-----3--2-----0--|------------------------------|-------------------------------|--3---------------------------|-------------------------------|------------------------------|
-------------------------------|-----------1--5--3--1--5-----|-------------------------------|-----0--3--------------------|-------------------------------|-----------------------------|----0--3--2--0--3--2--0--------|-----------------------------|----------------------------3--|--2--------------------------|-------------------------------|--------------------------0--|
-----------0--3--1--0--0------|--0------------------------|--------0--------------8------|--0------------------------|-----2-----------------7------|--0------------------------|-----------------------6------|--3-------2--0------2------|-----------------------7------|--2------------------------|--1--------------------0------|--0------------------------|
--------------------------------|-----------0--3--1--0--1--8--|--------------------------------|--------1--------------------|--0-------2--0------------------|-----2-----------------------|--------------------------------|-----------------------------|--------------------------------|--0--------------------------|--------------------1--2--3--4--|-----------------------------|
---------------0--------------|--------------1--0-----0--7--|---------------0-----3-----1--|--------0--3--------4--------|---------------2-----0-----2--|-----1-----------------------|---------------------0-----3--|-----------------------------|--0----0-2--3-----2-----0-----|-----------------------------|-------6----------------------|--4--------------------------|
---------------------------|-----------0--3--1--0--1--8--|------------3-----1-----0--|--------1--------------------|------------2-----1-----1--|-----2-----------------------|------------3-----2-----3--|-----------------------------|---------------------------|--0--------------------------|--0------1-----0-----0-----|-----------------------------|
---------------0--------------|--------------1--0-----0--7--|---------------0-----3-----1--|--------0--3--------4--------|---------------2-----0-----2--|-----1-----------------------|---------------------0-----3--|-----------------------------|--0----0-2--3-----2-----0-----|-----------------------------|-------6----------------------|--4--------------------------|
---------------------------|--------------------0--5-----------|------------3-----1-----0--|--------------0--1-----------------|------------2-----1-----1--|-----------2-----------------------|------------3-----2-----3--|-----2--3--------------------------|---------------------------|--0--------------------------------|--0------1-----0-----0-----|----------------------------0------|
--------------------0--5-----------------|--0---------------------------------|--------------0--1--------0--1--1--3--3--|-----1---3--1--0--------------------|-----------2-----------------------------|-----2------------2-----------------|-----2--3--------------------------------|-----3---------------2--3-----------|--0--------------------------------------|--0------------------------3--3--2--|-----------------------------------------|------------------------------------|
------------------------------------------|--0-------------------------------|-----1---3--1--0-----------0--1--1--3--3--|---------3--3--1--0---------------|-----2------------2--1--2-----------------|-----1---------------1------------|-----3------------------------------------|-----3---------------3------------|--0---------------------------------------|-----2---------------2------------|------------------------------------------|--0---------------0------0--1--3--|
------------------------------------0--0--|--1------0------------------------|------------------------0--1--3--3--------|------------3--1------------------|-----4---5--4--2--1--2--------------------|-----3------------3---------------|-----3------------------------------------|-----3---------------3------------|-----5------------------------------------|---------------------7------------|--4---------------------------------------|--3---------------3---------0--1--|
---------------------------0--1--1--3--3--|--5--------------------------|-----0---1--0-----0--1--3-----------------|---------------3------3------|---------------2--------------------------|-----2---------2------2------|-----2------------------------------------|-----2---------2------2------|------------------------------------------|---------------5------5------|--3---------------------------------------|--2---------2----------------|
--5----------------0------|--5--------0--1-----------3--5--3-1-0------|--3-------------3-----3---|--------1-----------------------------3-1--|--------------------------|-----2-------------------------------------|--------------------------|--0----------------------------------------|--------------------------|-----------------0--2--3-------------------|--------------------------|-------------------------------------------|
------------------0--1-0---0-1--|--3--0-----------3--1--0----------|--0---------1--3---------3------|-----0-------------------3-1-0----|--------------------------------|-----0-------------------------2--|-----3--------------------------|----------------------------------|-----5--------------------------|--3-----------2--------0----------|--3------------4----------------|----------------------------------|
---------------------------------------0--|--0------------0--1--0--3--1--0--1--3-----|--2--2------2-----------------------------|--1--1------------------------------------|--3--3------------------------------------|--1---------------------------------------|
--1-------------3--1--0--------------|--0--0-------------------3--1--0-----|--2--2----------------------------2--|--0--0-------------------------------|--2-------0--2-----------------------|-------------------------------------|
------------------------------------------|---------------0-----------------|--0-----0-----0------0--1--0--3--1--0-----|--0------------8--0--------3--3--|--2--2-----2-----2---------------------2--|--1------------7-----5--5--------|--1--------------1------------------------|--2------2-----6-----------------|--3--------------3------------------------|--2------2-----7-----------------|--1---------------------------------------|--0------------0-----------------|
--0-----------------------|---------------------------|-----1--------------------|-----1------0--1--1--3--3--|-----2-------2------------|-----2---------2-----------|-----2-------2------------|-----3---------3-----------|--0-------3---------------|--0------------0-----------|--------------------0-2-4-|---------------------------|
--0-------------------------|---------------------0--0--|-------------0--------------|-----0------1--3--3--------|-----0-------0--------------|---------------4-----------|-----4-------4--------------|-----3---------3-----------|-----2----------------------|---------------------------|--0-------4-----------0-2-3-|--4------------3-----------|
--1-----------------------|------------0--1--1--3--3--|-----0--------------------|-----0---------------------|-------------4------------|---------------------------|-----3-------3------------|-----3---------------------|-------------7------------|---------------0-----------|--3-------3-----------0-1-|--4------------------------|
--5------------------------|--5---5------5--5--3--1--0--1--3--|-------------3------3------|--3-------------------------------|-----0-------2------2------|----------------------------------|-----4-------2------2------|----------------------------------|-------------5------5------|----------------------------------|--2-------2----------------|----------------------------------|
--5--1---------3--5--5-----|--0--1--3----------------------|-----1---------3--------6--|--0----------------------------|-----2---------4-----------|--0-----------2----------------|--0------------------------|--------------1----3--2--0-----|---------------------------|--3-----------3-------------3--|------------0--3-----------|-----------0--1----------------|
-----0------0-----0------0--|--0-------0-----------------------|-----3------3-----1------1--|--12------11------10------0-------|-----2------2-----0------0--|--10------0-------8-------13------|-----3------3--0------------|--12------11------10------13------|--2------------2------------|--11--------------9-------16------|---------------0------------|--------------------------13------|
--0-------0-------0-----------|------------5---------||------------------------------|------------5---------||--12------11------10----------|------------5---------||--11------10------8-----------|------------7---------||--13------12------11----------|--0---------8---------||--12------11------10----------|------------5---------||
Tap to rate this tab
 
# A B C D E F G H I J K L M N O P Q R S T U V W X Y Z