At The Drive In - Winter Month Novelty tab

Track: Winter Month Novelty
Artist: At The Drive-In
Album: El Gran Orgo
Tabbed by: Dave The Bookie (dave_the_bookie@hotmail.com)

Standard Tuning (E B G D A E)

Intro

Gtr.1

PM……………………………………………………………………|-----------------------------||-----------------------------||------4-----4---4------------||--------------------etc.-----||--3-3---3-3---3--------------||-----------------------------|
Gtr.2
|---------------3------------------3-3-3--3-3-3-----------||----------------3-----------------3-3-3--3-3-3-----0-----||--5---4-~~~~~----4---5---4-~~-4---4-4-4--4-4-4-----0-.---||--5---5--------------5---5----5---5-5-5--5-5-5-----2-.---||--3---3--------------3---3----3---3-3-3--3-3-3-----2-----||-----------------------------------------------0-0-0-----|
Gtr.1
|-----------------------------------------------------|--2-22-2-22-2-2-22-------------3-33-3------5-55-5----|--------------------------0-00-0-00-0-0-00-0-00-0----|--0-00-0-00-0-0-00-2-22-4-4-44--------4-44-----------|-----------------------------------------------------|-----------------------------------------------------
Gtr.2
|-----------------------------------------------------|--------------10-12-10-------------------------------|--6-66-7-77-7/---------------------------------------|--0-00-0-00-0----------------------------------------|--0-00-0-00-0----------------------------------------|-----------------------------------------------------
Chorus Gtr.1
|------------------------------------------------------||------------------------------------------------------||--7/9---------4/9-------------------------------------||--x-x---------x-x-----------7--------------5----------||--5/7---------2/7-----------7--------------5----------||----------------------------5--------------3----------|
Gtr.2
|------------------------|--/19----19----19------------||--12----12----12--------|--/---19----19---19----------||-----11----11---11------|-----------------------------||------------------------|-----------------------------||------------------------|-----------------------------||------------------------|-----------------------------|
Both guitars let ring on C5 for two bars Interlude Gtr.1
|------------------------------------------------------||------------------------------------------------------||--5--------------7---------------9---------------9----||--5--------------7---------------9---------------9----||--3--------------5---------------7---------------7----||------------------------------------------------------|
Gtr.2
|------------------------------------------------------|------------------------------------------------------|--12---11-------12---11----------9--------------------|---x----x--------x----x----------x---------------9---- x2|--12---11-------12---11----------7---------------x----|-------------------------------------------------7----
--------------------------------------------------------------------------------------------------------------------12---14-------12---14---------17---15---------17---15-----x----x--------x----x----------x----x----------x----x----10---12-------10---12---------15---13---------15---13-----------------------------------------------------------
---------------------------------------------------------|---------------------------------------------------------|--12------------11--------7/9---12\11--9—7/9-------------|---x-------------x--------x-x----x--x--x-x-x-------------|--10-------------9--------5-7---10\-9--7-5/9-------------|---------------------------------------------------------|
Outro Gtr.1
|-------------------------|---------------------------||-------------------------|---------------------------||--9----------------------|--9------------------------||--9----------------------|--9------------------------||--7----------------------|--7------------------------||-------------------------|---------------------------|
Gtr.2
|-------------------------|---------------------------||--12-1212-10-1010--------|--12-1212-10-1010----------||------------------11-11--|------------------11-11----||-------------------------|---------------------------||-------------------------|---------------------------||-------------------------|---------------------------|
Tap to rate this tab
 
# A B C D E F G H I J K L M N O P Q R S T U V W X Y Z